Muse - Citizen Erased Chords & Tabs

 

Muse Chords & Tabs

Version: 7 Type: Tab 0 ratings
1 star 2 stars 3 stars 4 stars 5 stars
comments

Citizen Erased Tab

Intro

/----15----15-15----15-15----15-----15----15-15----15-15----15-|
/--------------------------------------------------------------|
/--------------------------------------------------------------|
/--------------------------------------------------------------|
/0-0----12-------12-------12----0-0----12-------12-------12----|
/0-0----------------------------0-0----------------------------|

/----12----12-12----12-12----12-----12----12-12----12-12----12-|
/--------------------------------------------------------------|
/--------------------------------------------------------------|
/--------------------------------------------------------------|
/0-0----12-------12-------12----0-0----12-------12-------12----|
/0-0----------------------------0-0----------------------------|

/----15----15-15----15-15----15-----15----15-15----15-15----15-|
/--------------------------------------------------------------|
/--------------------------------------------------------------|
/--------------------------------------------------------------|
/0-0----12-------12-------12----0-0----12-------12-------12----|
/0-0----------------------------0-0----------------------------|

/----12---12-|
/------------|
/------------|
/------------|
/0-0----0----|
/0-0----0----|

Verse

/--------------------------------------------------------|
/--------------------------------------------------------|
/--------------------------------------------------------|
/----14---14-14---14-14---14-----12---12-12---12-12---12-|
/0-0-12-0-12-12-0-12-12-0-12-0-0-10-0-10-10-0-10-10-0-10-|
/0-0----0-------0-------0----0-0----0-------0-------0----|

/--------------------------------------------------|
/--------------------------------------------------|
/--------------------------------------------------|
/----10---10-10---10-10---10-----9---9-9---9-9---9-|
/0-0-8--0-8--8--0-8--8--0-8--0-0-7-0-7-7-0-7-7-0-7-|
/0-0----0-------0-------0----0-0---0-----0-----0---|

Chorus
[ Tab from: http://www.guitartabs.cc/tabs/m/muse/citizen_erased_tab_ver_7.html ]
/--------------------------------------------|
/--------------------------------------------|
/10-10-10-10-------------9-9-9-9-14-14-12-12-|
/10-10-10-10-10-10-10-10-9-9-9-9-14-14-12-12-|
/8--8--8--8--10-10-10-10-7-7-7-7-12-12-10-10-|
/------------10-10-10-10---------------------|

/----------------------------------------|
/----------------------------------------|
/10-10-10-10-------------9-9-9-9-9-9-9-9-|
/10-10-10-10-10-10-10-10-9-9-9-9-9-9-9-9-|
/8--8--8--8--10-10-10-10-7-7-7-7-7-7-7-7-|
/------------10-10-10-10-----------------|

Do this twice then

/------------------------------------5-0-0-8-0-0-7-0-0-6-0-0-5-0-0-0-|
/--------------------------------------------------------------------|
/2-2-2-2-2-2-2-2-2-2-2-2-2-2-4-4-0-2---------------------------------|
/--------------------------------------------------------------------|
/--------------------------------------------------------------------|
/--------------------------------------------------------------------|

/5-0-0-4-0-0-3-0-0-4-0-0-3-0-0-0-3-0-0-2-0-0-1-0-0-2-0-0-3-0-0-0-4-0-|
/--------------------------------------------------------------------|
/--------------------------------------------------------------------|
/--------------------------------------------------------------------|
/--------------------------------------------------------------------|
/--------------------------------------------------------------------|

/5-0-0-6-0-0-7-0-0-8-0-0-7-0-0-0-7-0-0-8-0-0-9-0-0-10-0-0-9-0-0-0-----|
/---------------------------------------------------------------------|
/---------------------------------------------------------------------|
/---------------------------------------------------------------------|
/---------------------------------------------------------------------|
/---------------------------------------------------------------------|

/9-0-0-10-0-0-11-0-0-12-0-0-11-0-11-0-12-|
/----------------------------------------|
/----------------------------------------|
/----------------------------------------|
/----------------------------------------|
/----------------------------------------|

theres another part but i cant work it out...anyway ENJOY!
Comments