Muse - Bliss Chords & Tabs

 

Bliss Chords & Tabs

Muse Chords & Tabs

Version: 4 Type: Tab 0 ratings
1 star 2 stars 3 stars 4 stars 5 stars
comments

Bliss Tab

Artist-Muse
Track-Bliss
Album-Origin Of Symmetry
Any comments, questions or queries then mail me at ruled_by_secrecy_6@hotmail.com

Intro
This is the synth, pretty tricky on guitar.
e|---------------------11-15-11--------------------|
B|------------------13----------13-----------------|
G|---------------12----------------12--------------|
D|---------10-13----------------------13-10--------|
A|------10----------------------------------10-----|
E|-8-11----------------------------------------11--|

e|---------------------10-13-10-------------------|
B|------------------11----------11----------------|
G|---------------10----------------10-------------|
D|------------12----------------------12----------|
A|---------13----------------------------13-------|
E|-6-10-13----------------------------------13-10-|

e|---------------4-8-4--------------|
B|-------------6-------6------------|
G|-----------5-----------5----------|
D|-------3-6---------------6-3------|
A|-----3-----------------------3----|
E|-1-4---------------------------4--|

e|---------------------11-15-11-------------------|
B|------------------13----------13----------------|
G|---------------12----------------12-------------|
D|---------10-13----------------------13-10-------|
A|------10----------------------------------10----|
E|-8-11----------------------------------------11-|

e|---------------------11-15-11--------------------|
B|------------------13----------13-----------------|
G|---------------12----------------12--------------|
D|---------10-13----------------------13-10--------|
A|------10----------------------------------10-----|
E|-8-11----------------------------------------11--|


Live Intro (This is the one Matt played at Glasto and is much easier)
e|-10-----------------|-10-----------------|-13-----------------|
B|-----13-------------|-----11-------------|-----13-------------|
G|---------12~--------|---------10~--------|---------13~--------|
D|--------------------|--------------------|--------------------|
A|--------------------|--------------------|--------------------|
E|--------------------|--------------------|--------------------|

Main Riff
e|------------------------------1--1--1--1----------------------------------1-1-----1-1---------------------------------|
B|-4--4--4--4-x-x-3-3-x-x-3-3-0-1--1--1--1-x-x-4-4-x-x-4-4-0-3--3--3--3-x-x-1-1-x-x-1-1---4--4--4--4--x-x-4-4-x-x-x-4-4-|
G|-5--5--5--5-x-x-3-3-x-x-3-3-0-1--1--1--1-x-x-5-5-x-x-5-5-0-3--3--3--3-x-x-1-1-x-x-1-1-0-5--5--5--5--x-x-5-5-x-x-x-5-5-|
D|-5--5--5--5-x-x-3-3-x-x-3-3-0-3--3--3--3-x-x-5-5-x-x-5-5-0-3--3--3--3-x-x-3-3-x-x-3-3-0-5--5--5--5--x-x-5-5-x-x-x-5-5-|
A|-3--3--3--3-x-x-1-1-x-x-1-1-0-3--3--3--3-x-x-3-3-x-x-3-3-0-1--1--1--1-x-x-3-3-x-x-3-3-0-3--3--3--3--x-x-3-3-x-x-x-3-3-|
E|------------------------------1--1--1--1-x-x------------------------------1-1-x-x-1-1-0-------------------------------|
[ Tab from: http://www.guitartabs.cc/tabs/m/muse/bliss_tab_ver_4.html ]
Verse (This is my own version of what Matt plays)
e|-----------------------------------------------------|
B|-13----13--------------------------------------------|
G|----------15----15-10----10------------------------5-|
D|----------------------------10----10-8----8-3----3---| x2
A|-----------------------------------------------------|
E|-----------------------------------------------------|

Chorus
e|-----------------------------------|-----------------------------------|-1-1-1-1-1-1-1-1-|
B|-1-1-1-1--1-1-1-1--1-1-1-1-1-1-1-1-|-1-1-1-1--1-1-1-1------------------|-1-1-1-1-1-1-1-1-|
G|-0-0-0-0--2-2-2-2--0-0-0-0-0-0-0-0-|-0-0-0-0--2-2-2-2--1-1-1-1-1-1-1-1-|-1-1-1-1-1-1-1-1-|
D|-2-2-2-2--2-2-2-2--2-2-2-2-2-2-2-2-|-2-2-2-2--2-2-2-2--2-2-2-2-2-2-2-2-|-3-3-3-3-3-3-3-3-|
A|-3-3-3-3---------------------------|-3-3-3-3-----------2-2-2-2-2-2-2-2-|-3-3-3-3-3-3-3-3-|
E|-------------------3-3-3-3-3-3-3-3-|-------------------0-0-0-0-0-0-0-0-|-1-1-1-1-1-1-1-1-|

Back To Main Riff

2nd Verse same as first

2nd Chorus
e|-----------------------------------|-----------------------------------||-1-1-1-1-1-1-1-1-|
B|-1-1-1-1--1-1-1-1--1-1-1-1-1-1-1-1-|-1-1-1-1--1-1-1-1------------------||-1-1-1-1-1-1-1-1-|
G|-0-0-0-0--2-2-2-2--0-0-0-0-0-0-0-0-|-0-0-0-0--2-2-2-2--1-1-1-1-1-1-1-1-||-1-1-1-1-1-1-1-1-|
D|-2-2-2-2--2-2-2-2--2-2-2-2-2-2-2-2-|-2-2-2-2--2-2-2-2--2-2-2-2-2-2-2-2-||-3-3-3-3-3-3-3-3-|
A|-3-3-3-3---------------------------|-3-3-3-3-----------2-2-2-2-2-2-2-2-||-3-3-3-3-3-3-3-3-|
E|-------------------3-3-3-3-3-3-3-3-|-------------------0-0-0-0-0-0-0-0-||-1-1-1-1-1-1-1-1-|

Back To Intro

Bridge (Not too sure about this bit)
e|------------------------|----------------------------|--------------------------------|
B|------------------------|----------------------------|--------------------------------|
G|-5--5--5--5--5--5--5-5--|--7--7--7--7--7--7--7--7-7--|--10--10--10--8--8--8--7--7--7--|
D|------------------------|----------------------------|--------------------------------|
A|-3--3--3--3--3--3--3-3--|--5--5--5--5--5--5--5--5-5--|---8---8---8--6--6--6--5--5--5--|
E|------------------------|----------------------------|--------------------------------|
         
e|----------------------------|--------------------------|--------------------------|
B|----------------------------|--------------------------|--------------------------|
G|--8--8--8--7--7--7--5--5-5--|--7--7--7--5--5--5--3--3--|--------------------------|
D|----------------------------|--------------------------|--6--6--6--5--5--5--3--3--|
A|--6--6--6--5--5--5--3--3-3--|--5--5--5--3--3--3--1--1--|--------------------------|
E|----------------------------|--------------------------|--4--4--4--3--3--3--1--1--|
     
e|-------------------------------|-------------------------------|
B|-------------------------------|-------------------------------|
G|--5--5-5-5--5-5-5--5-5-5--5-5--|--5--5-5-5--5-5-5--5-5-5--5-5--|
D|-------------------------------|-------------------------------|
A|--3--3-3-3--3-3-3--3-3-3--3-3--|--3--3-3-3--3-3-3--3-3-3--3-3--|
E|-------------------------------|-------------------------------|
Comments