Muse - Bliss Chords & Tabs

 

Bliss Chords & Tabs

Muse Chords & Tabs

Version: 1 Type: Tab 0 ratings
1 star 2 stars 3 stars 4 stars 5 stars
comments

Bliss Tab

   
Easy and Brilliant...        This is 100% Correct.

Standard Tuning EADGBe
Time Signature:4
               4

XXXX = Palm Muted

Intro Based on Chords Cmin, Bb maj, Fmin.
On Album version Matthew Bellamy plays arpeggios over 3 octaves if these chords,
but Live, he plays on guitar as follows.

Intro
(Let Notes Ring)
 Cmin    Bb Maj   Fmin  Cmin   Bb Maj  Fmin  Cmin
|--11-------10------13----11-----10------8-----11-------------------------|
|----13-------11------13----13-----11-----9-------13----------------------|
|------12-------10------13----12-----10-----10-------12-------------------|
|----------------------------------------------------------XXXX-XXXX-X----|
|----------------------------------------------------------XXXX-XXXX-X----|
|----------------------------------------------------------XXXX-XXXX-X----|x1

(Strums Intro Chords)
 Cmin         Bb Maj       Fmin        Cmin         Bb Maj      Fmin         Cmin        Cmin 
|-3-3-3-3-X-X-3-3-X-X-3-3--1-1-1-1-X-X-3-3-X-X-3-3--3-3-3-3-X-X-1-1-X-X-1-1--3-3-3-3-X-X-3-3-X-X-3-3-|
|-4-4-4-4-X-X-3-3-X-X-3-3--1-1-1-1-X-X-4-4-X-X-4-4--3-3-3-3-X-X-1-1-X-X-1-1--4-4-4-4-X-X-4-4-X-X-4-4-|
|-5-5-5-5-X-X-3-3-X-X-3-3--1-1-1-1-X-X-5-5-X-X-5-5--3-3-3-3-X-X-1-1-X-X-1-1--5-5-5-5-X-X-5-5-X-X-5-5-|
|-5-5-5-5-X-X-3-3-X-X-3-3--3-3-3-3-X-X-5-5-X-X-5-5--3-3-3-3-X-X-3-3-X-X-3-3--5-5-5-5-X-X-5-5-X-X-5-5-|
|-3-3-3-3-X-X-1-1-X-X-1-1--3-3-3-3-X-X-3-3-X-X-3-3--1-1-1-1-X-X-3-3-X-X-3-3--3-3-3-3-X-X-3-3-X-X-3-3-|
|---------X-X-----X-X------1-1-1-1-X-X-----X-X--------------X-X-1-1-X-X-1-1----------X-X-----X-X-----|

Verse:
No Guitar on CD version, Bass works through same 3 chords as intro. Live, Matt does the same and 
repeats the intro arpeggios through parts of the verse.
[ Tab from: http://www.guitartabs.cc/tabs/m/muse/bliss_tab.html ]
Chorus:
(He plays chords on high Frets)
  Cmaj        Amin          Gmaj         Gmaj
|---------------------------15-15-15-15--15-15-15-15-|
|-13-13-13-13--13-13-13-13--0--0--0--0---0--0--0--0--|
|-0--0--0--0---14-14-14-14--0--0--0--0---0--0--0--0--|
|-14-14-14-14--14-14-14-14--0--0--0--0---0--0--0--0--|
|-15-15-15-15--0--0--0--0---14-14-14-14--14-14-14-14-|
|---------------------------15-15-15-15--15-15-15-15-|

 Cmaj         Amin          Emaj         Emaj
|---------------------------0--0--0--0---0--0--0--0--|
|-13-13-13-13--13-13-13-13--0--0--0--0---0--0--0--0--|
|-0--0--0--0---14-14-14-14--13-13-13-13--13-13-13-13-|
|-14-14-14-14--14-14-14-14--14-14-14-14--14-14-14-14-|
|-15-15-15-15--0--0--0--0---14-14-14-14--14-14-14-14-|
|---------------------------0--0--0--0---0--0--0--0--|


  Ring   Strum Increasing Volume
 [-----][---------------------------------]
  Fmaj
|--------------------------------------------|
|--------------------------------------------|
|-14----14-14-14-14-14-14-14-14-14-14-14-14--|
|-15----15-15-15-15-15-15-15-15-15-15-15-15--|
|-15----15-15-15-15-15-15-15-15-15-15-15-15--|
|--------------------------------------------|

Intro Riff

 Cmin         Bb Maj       Fmin        Cmin         Bb Maj      Fmin         Cmin        Cmin 
|-3-3-3-3-X-X-3-3-X-X-3-3--1-1-1-1-X-X-3-3-X-X-3-3--3-3-3-3-X-X-1-1-X-X-1-1--3-3-3-3-X-X-3-3-X-X-3-3-|
|-4-4-4-4-X-X-3-3-X-X-3-3--1-1-1-1-X-X-4-4-X-X-4-4--3-3-3-3-X-X-1-1-X-X-1-1--4-4-4-4-X-X-4-4-X-X-4-4-|
|-5-5-5-5-X-X-3-3-X-X-3-3--1-1-1-1-X-X-5-5-X-X-5-5--3-3-3-3-X-X-1-1-X-X-1-1--5-5-5-5-X-X-5-5-X-X-5-5-|
|-5-5-5-5-X-X-3-3-X-X-3-3--3-3-3-3-X-X-5-5-X-X-5-5--3-3-3-3-X-X-3-3-X-X-3-3--5-5-5-5-X-X-5-5-X-X-5-5-|
|-3-3-3-3-X-X-1-1-X-X-1-1--3-3-3-3-X-X-3-3-X-X-3-3--1-1-1-1-X-X-3-3-X-X-3-3--3-3-3-3-X-X-3-3-X-X-3-3-|
|---------X-X-----X-X------1-1-1-1-X-X-----X-X--------------X-X-1-1-X-X-1-1----------X-X-----X-X-----|

Verse 2 
No Guitar

Chorus 2 
Cmaj        Amin          Gmaj         Gmaj
|---------------------------15-15-15-15--15-15-15-15-|
|---------------------------0--0--0--0---0--0--0--0--|
|-13-13-13-13--13-13-13-13--0--0--0--0---0--0--0--0--|
|-0--0--0--0---14-14-14-14--0--0--0--0---0--0--0--0--|
|-14-14-14-14--14-14-14-14--14-14-14-14--14-14-14-14-|
|-15-15-15-15--0--0--0--0---15-15-15-15--15-15-15-15-|  
Comments