Muse - Blackout Chords & Tabs

 

Blackout Chords & Tabs

Muse Chords & Tabs

Version: 2 Type: Tab 0 ratings
1 star 2 stars 3 stars 4 stars 5 stars
comments

Blackout Tab

Band - Muse
Song - Blackout

Intro (clean)
e----------------------------------|
B----------------------------------|
G-3-7-2-7-0-8-2-6-3-7-2-7-0-8-2-5--|
D----------------------------------|
A----------------------------------|
E----------------------------------|
[ Tab from: http://www.guitartabs.cc/tabs/m/muse/blackout_tab_ver_2.html ]
Solo/interlude (dist.)
e--------------------------------------------------------------------------------------|
B-----------------------------------------------------------15-16-18-19-20-22-20-19-15-|
G-3-3-3----3-7-2-7-0-8-2-6-3-7-2-7-0-8-2-5------12-14-15-17----------------------------|
D--------------------------------------------------------------------------------------|
A--------------------------------------------------------------------------------------|
E--------------------------------------------------------------------------------------|

Outro/last verse
e-----------------------------------------------|
B-----------------------------------------------|
G-----------------------------------------------|
D-8-12-7-12-5-13-7-11-8-12-7-12-5-13-7-10-------|
A-----------------------------------------------|
E-----------------------------------------------|

e-----------------------------------------------------|
B-------------15-16-18-19-20-22-20-19-15-15-15--------|
G-12-14-15-17-----------------------------------------|
D-----------------------------------------------------|
A-----------------------------------------------------|
E-----------------------------------------------------|
Comments