Muse - Blackout Chords & Tabs

 

Blackout Chords & Tabs

Muse Chords & Tabs

Version: 1 Type: Tab 1 rating
1 star 2 stars 3 stars 4 stars 5 stars
comments

Blackout Tab

Artist	 : Muse
Song   	 : Blackout
TABBED BY: MATT WALKER

Intro (Use 'pointy' bit of pick)/ (Clean/slight dist)

---------------------------------------------------------------
---------------------------------------------------------------
-3-7-2-7-0-8-2-6--3-7-2-7-0-8-2-6------------------------------
---------------------------------------------------------------
---------------------------------------------------------------
--------------------------------------------------------------- 

(Each of these notes is played approx 8 times)


Solo bit (Heavy Dist/Slight Echo/Fast Delay)

---------------------------------------------
---------------------------------------------
---------------------------------------------
--8-12-7-12-5-13-7-11-8-12-7-12-5-13-7-11----
---------------------------------------------
---------------------------------------------
[ Tab from: http://www.guitartabs.cc/tabs/m/muse/blackout_tab.html ]
---------------------------------------------
----------------------19-20-22-20-19---------
-------------19-20-22----------------19------
-17-19-20-22---------------------------------
---------------------------------------------
---------------------------------------------

As the first riff, play the notes approx 8 times. but listen to 
the CD for the timings.
I just figured this out in the early morning, but 
when i saw this live, this is what it looked like he was playing.

If you have any questions or comments, or even requests, mail me: -

cosmicspoon@hotmail.com

Also, if you have a Boss DS-1 pedal, you may like to try using the 
following settings: - 

Tone: 10:30 o'clock
Dist: Max
Level: Whatever you feel like!

Unless you have a fuzz pedal, you wont get the right sound, 
so you may want to think about using the distortion on your amp too.
Happy jamming, long live muse!
	
	--     --	---   ---	---------	--------
	---   ---	---   ---	---------	--------
	---- ----	---   ---	----		---
	---------	---   ---	---------	--------
	--- - ---	---   ---	---------	--------
	---   ---	---   ---	     ----	---
	---   ---	---------	---------	--------
	---   ---	---------	---------	--------
Comments