Muse - Assassin Chords & Tabs

 

Assassin Chords & Tabs

Muse Chords & Tabs

Version: 1 Type: Bass Tab 0 ratings
1 star 2 stars 3 stars 4 stars 5 stars
comments

Assassin Bass Tab

   
Muse: Assassin

G-----------------------------------------|
D-----------------------------------------|
A-1-00000-1-00000-1-0-1-00000-1-00000-1-0-|
D-----------------------------------------|

G-----------------------------------------|
D-----------------------------------------|
A-----------------------------------------|
D-8-55555-8-55555-8-5-8-55555-8-55555-8-5-|

G-----------------------------------------|
D-----------------------------------------|
A-1-00000-1-00000-1-0-1-00000-1-00000-1-0-|
D-----------------------------------------|

G-----------------------------------------|
D-----------------------------------------|
A-----------------------------------------|
D-8-55555-8-55555-8-5-8-55555-8-55555-8-5-|

slight pause

G------------------------------------------    |
D------------------------------------------    |
A------------------------------------------    |
D--x-00000-x-00000-x-0-x-00000-x-00000-x-0-    |
                                               | x2
G--------------------------------------------  |
D--------------------------------------------  |
A--------------------------------------------  |
D--x-00000-x-00000-x-0-x-00000-x-00000-888888  |

G------------------------------------------------------------ |
D------------------------------------------------------------ |
A--5555-555-55-5555-555-55-555-55-5333-333-33-3333-333-3/8888 |
D------------------------------------------------------------ |
                                                              |  x2
G---------------------------------------------------          |
D---------------------------------------------------          |
A-888-88-8888-888-88-88-8/5555-555-55-5555-555-55-0-          |
D---------------------------------------------------          |

G-------------------------------------------------|
D-------------------------------------------------|
A-------------------------------------3333-333-33-|
D-3333-333-33-3333-333-33-3333-333-33-------------|

G-------------------------------------------------|
D-------------------------------------------------|
A-------------------------------------------------|
D-5555-555-55-5555-555-55-5555-555-55-0000-000-00-|

G-------------------------------------------------|
D-------------------------------------------------|
A-------------------------------------3333-333-33-|
D-3333-333-33-3333-333-33-3333-333-33-------------|

G-------------------------------------------------|
D-------------------------------------------------|
A-------------------------------------5555-555-55-|
D-5555-555-55-5555-555-55-5555-555-55-------------|

G-----------------------------------------|
D-----------------------------------------|
A-1-00000-1-00000-1-0-1-00000-1-00000-1-0-|
D-----------------------------------------|
[ Tab from: http://www.guitartabs.cc/tabs/m/muse/assassin_btab.html ]
G-----------------------------------------|
D-----------------------------------------|
A-----------------------------------------|
D-8-55555-8-55555-8-5-8-55555-8-55555-8-5-|

G-----------------------------------------|
D-----------------------------------------|
A-1-00000-1-00000-1-0-1-00000-1-00000-1-0-|
D-----------------------------------------|

G---------------------|
D---------------------|
A---------------------|
D-8-55555-8-55555-8-5-|

slight pause

G------------------------------------------    |
D------------------------------------------    |
A------------------------------------------    |
D--x-00000-x-00000-x-0-x-00000-x-00000-x-0-    |
                                               | x2
G--------------------------------------------  |
D--------------------------------------------  |
A--------------------------------------------  |
D--x-00000-x-00000-x-0-x-00000-x-00000-888888  |

G-------------------------------------------------------------|
D-------------------------------------------------------------|
A--5555-555-55-5555-555-55-555-55-5333-333-33-3333-333-3/8888-|
D-------------------------------------------------------------|

G---------------------------------------------------|
D---------------------------------------------------|
A-888-88-8888-888-88-88-8/5555-555-55-5555-555-55---|
D---------------------------------------------------|

G-------------------------------------------------|
D-------------------------------------------------|
A-------------------------------------3333-333-33-|
D-3333-333-33-3333-333-33-3333-333-33-------------|

G-------------------------------------------------|
D-------------------------------------------------|
A-------------------------------------------------|
D-5555-555-55-5555-555-55-5555-555-55-0000-000-00-|

G-------------------------------------------------|
D-------------------------------------------------|
A-------------------------------------3333-333-33-|
D-3333-333-33-3333-333-33-3333-333-33-------------|

G-------------------------------------------------|
D-------------------------------------------------|
A-------------------------------------5555-555-55-|
D-5555-555-55-5555-555-55-5555-555-55-------------|

G-----------------------------------------|
D-----------------------------------------|
A-1-00000-1-00000-1-0-1-00000-1-00000-1-0-|
D-----------------------------------------|

G-----------------------------------------|
D-----------------------------------------|
A-----------------------------------------|
D-8-55555-8-55555-8-5-8-55555-8-55555-8-5-|

G-----------------------------------------|
D-----------------------------------------|
A-1-00000-1-00000-1-0-1-00000-1-00000-1-0-|
D-----------------------------------------|

G-------------------------------------------------|
D-------------------------------------------------|
A-------------------------------------------------|
D-8-55555-8-55555-8-5-8-55555-8-55555-8-5-----0~--|
Comments