Murray Pete - So Beautiful Chords & Tabs

 

So Beautiful Chords & Tabs

Murray Pete Chords & Tabs

Version: 1 Type: Tab 2 ratings
1 star 2 stars 3 stars 4 stars 5 stars
comments

So Beautiful Tab

So Beautiful
Pete Murray
cappo on third fret

Verse
                               
----------------------------------------------------------
--------------3---------------3--------0------------------
----0---------0---------------0--------4----------------0-
----2---------2---------------2--------2----------------2-
----2-----------------2--3----3---------------x----x----2-
----0-----------------------------------------3----2----0-
                               
[ Tab from: http://www.guitartabs.cc/tabs/m/murray_pete/so_beautiful_tab.html ]
This is the verse and the chords, listen to get the strumming pattern.
The  means that there is some slight open struming before you go into the next
chord. you will know what i mean when you listen to it.

Chorus

----------------------------2-----3---/---5-----
---------0-h-1-----1-p-0---3-----1---/---3------
--0-----2----------2-------2-----0---/---0------
--2-----2----------2-------------2---/---4------
--2-----0----------0-------------3---/---5------
--0---------------------------------------------

thanks guys enjoy. Send me an email or add me to your MSN for a chat.
bushtuker@hotmail.com
anthony
Comments