Murray Pete - Feeler Chords & Tabs

 

Feeler Chords & Tabs

Murray Pete Chords & Tabs

Version: 1 Type: Tab 0 ratings
1 star 2 stars 3 stars 4 stars 5 stars
comments

Feeler Tab

Pete Murray- Feeler
Album- Feeler


Intro and Verse
-----------------------------------------------e
-----------------------------------------------B
-----------------------------------------------G repeat as
--------xxx--5x--------xx--7-xxx-7-x-7-----x---D necessary
–5/7--7-xxx--3x--5--7--xx--5-xxx-5-x-5-----x---A
–3/5--5-xxx------3--5----------------------x---E

Muting signs are only guides, just strum in a constant pattern
and sometimes play the notes, it should sound perfect.

Chorus
[ Tab from: http://www.guitartabs.cc/tabs/m/murray_pete/feeler_tab.html ]
You        and I       will be          always
-----------------------------------------------------
-----------------------------------------------------
---------------5------------10------------7----------
--7------------5------------10------------7----------
--7------------3------------8-------------5----------
--5--------------------------------------------------

These are the cords, just listen and get pattern, pretty simple. Some muting
thrown in to.

Listen to the song to know when to play each section. This is it though.

There are a few different distorted chords at the end of the song to give it a punch,
but the intro is still being played throughout the end and keyboard solo. If anyone 
figures out the keyboard solo I would be very interested! This is an easy song but 
it sounds bloody awesome on your good old acoustic. You won’t be able to stop playing it!
All the love I can’t give…looking for a girl friend… hahaha

anthony
bushtuker@hotmial.com

Comments