Murderdolls - White Wedding Chords & Tabs

 

White Wedding Chords & Tabs

Murderdolls Chords & Tabs

Version: 7 Type: Tab 0 ratings
1 star 2 stars 3 stars 4 stars 5 stars
comments

White Wedding Tab

-------------------------------------------------------------------------------
			     WHITE WEDDING - Murderdolls
-------------------------------------------------------------------------------
Tabbed by: Slipknot1442
Email: neogoth_@hotmail.com

Tuning: Standard (EADGBe)

- Intro (with bassline)
e|---------------------------------------------------------------------------|
B|---------------------------------------------------------------------------|
G|---------------------------------------------------------------------------|
D|--4-------4-------4-------4------------------------------------------------|
A|--2-------2-------2-------2------------------------------------------------|
E|---------------------------------------------------------------------------|

- Lead Intro* (Joey)
e|---------------------------------------------------------------------------|
B|-------------------------------------------------------------0-------------|
G|--11----------11----------------11----------11--14---13--------------------|
D|----12------12--12-14-12----------12------12--12---------------------------|
A|------14--14------------------------14--14---------------------------------|
E|--------14----------------------------14-----------------------------------|

- Chorus
e|---------------------------------------------------------------------------|
B|---------------------------------------------------------------------------|
G|--2---------4-4-4-4-4-4-4-4-4-4-4-4-4-4-4-4--------------------------------|
D|--2----2----4-4-4-4-4-4-4-4-4-4-4-4-4-4-4-4--------------------------------|
A|--0----2----2-2-2-2-2-2-2-2-2-2-2-2-2-2-2-2--------------------------------|
E|-------0-------------------------------------------------------------------|

e|---------------------------------------------------------------------------|
B|---------------------------------------------------------------------------|
G|--2----2----4-4-4-4-4-4-4-4-4-4-4-4-4-4-4-4--------------------------------|
D|--2----0----4-4-4-4-4-4-4-4-4-4-4-4-4-4-4-4--------------------------------|
A|--0---------2-2-2-2-2-2-2-2-2-2-2-2-2-2-2-2--------------------------------|
E|---------------------------------------------------------------------------|

- Verse
e|---------------------------------------------------------------------------|
B|---------------------------------------------------------------------------|
G|--4-4-4-4-4-4-4-4-4-4-4-4-4-4-4-4-2-2-2-2-2-2-2-2--------------------------|
D|--4-4-4-4-4-4-4-4-4-4-4-4-4-4-4-4-2-2-2-2-2-2-2-2-2-2-2-2-2-2-2-2----------|
A|--2-2-2-2-2-2-2-2-2-2-2-2-2-2-2-2-0-0-0-0-0-0-0-0-2-2-2-2-2-2-2-2----------|
E|--------------------------------------------------0-0-0-0-0-0-0-0----------|
PM  . . . . . . . . . . . . . . . . . . . . . . . . . . . . . . . .

e|---------------------------------------------------------------------------|
B|---------------------------------------------------------------------------|
G|--4-4-4-4-4-4-4-4-4-4-4-4-4-4-4-4-2-2-2-2-2-2-2-2-2-2-2-2-2-2-2-2----------|
D|--4-4-4-4-4-4-4-4-4-4-4-4-4-4-4-4-2-2-2-2-2-2-2-2-2-2-2-2-2-2-2-2----------|
A|--2-2-2-2-2-2-2-2-2-2-2-2-2-2-2-2-0-0-0-0-0-0-0-0-0-0-0-0-0-0-0-0----------|
E|---------------------------------------------------------------------------|
PM  . . . . . . . . . . . . . . . . . . . . . . . . . . . . . . . .
[ Tab from: http://www.guitartabs.cc/tabs/m/murderdolls/white_wedding_tab_ver_7.html ]
e|---------------------------------------------------------------------------|
B|---------------------------------------------------------------------------|
G|--4-4-4-4-4-4-4-4-4-4-4-4-4-4-4-4------------------------------------------|
D|--4-4-4-4-4-4-4-4-4-4-4-4-4-4-4-4------------------------------------------|
A|--2-2-2-2-2-2-2-2-2-2-2-2-2-2-2-2------------------------------------------|
E|---------------------------------------------------------------------------|
PM  . . . . . . . . . . . . . . . .

- Joey's Solo* (I have the DVD, so i'm pretty sure this is how it's played)
e|---------------------------------------------------------------------------|
B|-------------------------------------------------------------0-------------|
G|--11----------11----------------11----------11--14----13-------------------|
D|----12------12--12-14-12----------12------12--12---------------------------|
A|------14--14------------------------14--14---------------------------------|
E|--------14----------------------------14-----------------------------------|

e|---------------------------------------------------------------------------|
B|-----------------------------------------------------------------0---------|
G|--11----------11--11----------11--11----------11---14----13----------------|
D|----12------12--12--12------12--12--12------12--12-------------------------|
A|------14--14----------14--14----------14--14-------------------------------|
E|--------14--------------14--------------14---------------------------------|

- Breakdown
e|---------------------------------------------------------------------------|
B|---------------------------------------------------------------------------|
G|--2---------4-4-4-4-4-4-4-4-4-4-4-4-4-4-4-4--------------------------------|
D|--2----2----4-4-4-4-4-4-4-4-4-4-4-4-4-4-4-4--------------------------------|
A|--0----2----2-2-2-2-2-2-2-2-2-2-2-2-2-2-2-2--------------------------------|
E|-------0-------------------------------------------------------------------|

e|---------------------------------------------------------------------------|
B|---------------------------------------------------------------------------|
G|--4-------4-------4-------4-------4----------------------------------------|
D|--4-------4-------4-------4-------4----------------------------------------|
A|--2-------2-------2-------2-------2----------------------------------------|
E|---------------------------------------------------------------------------|

e|---------------------------------------------------------------------------|
B|---------------------------------------------------------------------------|
G|--2---------4-4-4-4-4-4-4-4-4-4-4-4-4-4-4-4--------------------------------|
D|--2----2----4-4-4-4-4-4-4-4-4-4-4-4-4-4-4-4--------------------------------|
A|--0----2----2-2-2-2-2-2-2-2-2-2-2-2-2-2-2-2--------------------------------|
E|-------0-------------------------------------------------------------------|

- Ending - Part 1
e|---------------------------------------------------------------------------|
B|---------------------------------------------------------------------------|
G|--4-----4-4-4-4-4-4-4-4-4-4-4-4-4-4----------------------------------------|
D|--4-----4-4-4-4-4-4-4-4-4-4-4-4-4-4----------------------------------------|
A|--2-----2-2-2-2-2-2-2-2-2-2-2-2-2-2----------------------------------------|
E|---------------------------------------------------------------------------|
PM        . . . . . . . . . . . .

- Ending - Part 2
e|---------------------------------------------------------------------------|
B|---------------------------------------------------------------------------|
G|--4-4-4-4-4-4-4-4-4-4-4-4-4-4-4-4------------------------------------------|
D|--4-4-4-4-4-4-4-4-4-4-4-4-4-4-4-4------------------------------------------|
A|--2-2-2-2-2-2-2-2-2-2-2-2-2-2-2-2------------------------------------------|
E|---------------------------------------------------------------------------|
PM  . . . . . . . . . . . . . . . .

For the end, play part 1, then 2, then go back and repeat the process until finish.

*Note: They are frets 11, 12, 14 etc. not fret 1 then 1, or 1 then 2.
Comments