Murderdolls - White Wedding Chords & Tabs

 

White Wedding Chords & Tabs

Murderdolls Chords & Tabs

Version: 5 Type: Bass Tab

White Wedding Bass Tab

   
-------------------------------------------------------------------------------
			     WHITE WEDDING - Murderdolls
-------------------------------------------------------------------------------

Tabbed By : Harley Fay
e-mail: wefay@charter.net

Tuning:Standard

*note*                                                                   *note*
I have listened to numerous versions of this song live and of course the actual 
"official" version on youtube. I prefer the way that Jack Tankersley plays this
song live but he never plays the chorus the same way twice from what I can tell
These tabs are for the "official" video of this song on youtube 


Intro
G|-------------------------------------|
D|-------------------------------------|
A|-------------------------------------|
E|-7777777777777777-55555555-000000000-|x2

G|-----------------------------------|
D|-----------------------------------|
A|------------------5555555-77777777-|
E|-7777777777777777------------------|

Verse
G|-------------------------------------|
D|-------------------------------------|
A|-------------------------------------|
E|-7777777777777777-55555555-000000000-|x2

G|----------------------------------------------------------|
D|----------------------------------------------------------|
A|----------------------------------------------------------|
E|-7777777777777777-5555555555555555-7777777777777777-------|

Chorus
G|--------------------------------------------------------------------------|
D|--------------------------------------------------------------------------|
A|-------------------------------------------5-5-5-5---------------------5~-|
E|--5-5-5-5-0-0-0-0-7777777777777777-0-0-0-0---------7777777777777777-0~----|

G|-------------------|
D|-------------------|
A|-------------------|
E|-7777777777777777--|

Verse
G|------------------------------------|
D|------------------------------------|
A|------------------------------------|
E|-7777777777777777-55555555-00000000-|x2
[ Tab from: http://www.guitartabs.cc/tabs/m/murderdolls/white_wedding_btab_ver_5.html ]
G|----------------------------------------------------|
D|----------------------------------------------------|
A|----------------------------------------------------|
E|-7777777777777777-5555555555555555-7777777777777777-|

Chorus
G|--------------------------------------------------------------------------|
D|--------------------------------------------------------------------------|
A|-------------------------------------------5-5-5-5---------------------5~-|
E|--5-5-5-5-0-0-0-0-7777777777777777-0-0-0-0---------7777777777777777-0~----|

G|-------------------|
D|-------------------|
A|-------------------|
E|-7777777777777777--|

Solo
G|------------------------------------|
D|------------------------------------|
A|------------------------------------|
E|-7777777777777777-55555555-00000000-|x2

G|--------------------------------------------------------------------------|
D|--------------------------------------------------------------------------|
A|----------------------------------------------------55555555-77777777-----|
E|-7777777777777777-0000000000000000-7777777777777777-------------------7~~-|

Bridge
G|-----------------------------------|
D|-----------------------------------|
A|-----------------------------------|
E|--5-5-5-5-0-0-0-0-7777777777777777-|


QUICK REST

G|------------------------------------------------------------------------------------------|
D|------------------------------------------------------------------------------------------|
A|-----------5-5-5555---------------------------5-5-5555---------------------------5-5-5555-|
E|--0-0-0000----------7777777777777777-0-0-0000----------7777777777777777-0-0-0000----------|

G|------------------------------|
D|------------------------------|
A|---------------------------5~-|
E|--7777777777777777-0-0-0-0----|

Outro
G|---------------------------------------------------|
D|---------------------------------------------------|
A|---------------------------------------------------| (REPEAT TILL END)
E|-7777777777777777777777777777777777777777777777777-|


| /  slide up
| \  slide down
| h  hammer-on
| p  pull-off
| ~  vibrato
| +  harmonic
| x  Mute note
===============================================================================