Murderdolls - Welcome To The Strange Chords & Tabs

 

Welcome To The Strange Chords & Tabs

Murderdolls Chords & Tabs

Version: 2 Type: Tab 0 ratings
1 star 2 stars 3 stars 4 stars 5 stars
comments

Welcome To The Strange Tab

-------------------------------------------------------------------------------
			     WELCOME TO THE STRANGE - Murderdolls
-------------------------------------------------------------------------------
Tabbed by: mattius 22


Tuning: drop d (DADGBe)


Intro with low flanger. and tremelo picking
e|------------------------------------|
B|------------------------------------|
G|------------------------------------|
D|------------------------------------|
A|------------------------------------|
D|-000000000000000-2222222-555-44444--|

e|-----------------------------------------------------|
B|-----------------------------------------------------|
G|-----------------------------------------------------|
D|-2-2-2-2-2-2-2-2--4-4--7-7--6-6-6-6-6-6-6-6-6-6-6-6--|
A|-2-2-2-2-2-2-2-2--4-4--7-7--6-6-6-6-6-6-6-6-6-6-6-6--|
D|-2-2-2-2-2-2-2-2--4-4--7-7--6-6-6-6-6-6-6-6-6-6-6-6--|
Repeat times 3


Then after third time
e|---------------------------------------|
B|---------------------------------------|
G|---------------------------------------|
D|-7-7-7-7-7-/-4-4-4-4-4-4--2-------x-x--|
A|-7-7-7-7-7-/-4-4-4-4-4-4--2-------x-x--|
D|-7-7-7-7-7-/ 4-4-4-4-4-4--2-------x-x--|         Hold

Verse
e|-----------------------------------------------------|
B|-----------------------------------------------------|
G|-----------------------------------------------------|
D|-2-2-2-2-2-2-2-2--4-4--7-7--6-6-6-6-6-6-6-6-6-6-6-6--|
A|-2-2-2-2-2-2-2-2--4-4--7-7--6-6-6-6-6-6-6-6-6-6-6-6--|
D|-2-2-2-2-2-2-2-2--4-4--7-7--6-6-6-6-6-6-6-6-6-6-6-6--|
Repeat times 4      no where, no place i'd rather be....

Pre chorus
e|----------------------------------------------------------------|
B|----------------------------------------------------------------|
G|----------------------------------------------------------------|
D|-7-7-7-7-7-/-4-4-4-4-4-4----2-2/7-7--2-2/7-7--2-2/7-7--2-2/7-7--|
A|-7-7-7-7-7-/-4-4-4-4-4-4----2-2/7-7--2-2/7-7--2-2/7-7--2-2/7-7--|
D|-7-7-7-7-7-/ 4-4-4-4-4-4----2-2/7-7--2-2/7-7--2-2/7-7--2-2/7-7--|
So saddle up for the ride of your life....   Repeat times 2


Second verse
e|-----------------------------------------------------|
B|-----------------------------------------------------|
G|-----------------------------------------------------|
D|-2-2-2-2-2-2-2-2--4-4--7-7--6-6-6-6-6-6-6-6-6-6-6-6--|
A|-2-2-2-2-2-2-2-2--4-4--7-7--6-6-6-6-6-6-6-6-6-6-6-6--|
D|-2-2-2-2-2-2-2-2--4-4--7-7--6-6-6-6-6-6-6-6-6-6-6-6--|
I ride into the super sci fi....    Repeat 2 times


Pre chorus
e|----------------------------------------------------------------|
B|----------------------------------------------------------------|
G|----------------------------------------------------------------|
D|-7-7-7-7-7-/-4-4-4-4-4-4----2-2/7-7--2-2/7-7--2-2/7-7--2-2/7-7--|
A|-7-7-7-7-7-/-4-4-4-4-4-4----2-2/7-7--2-2/7-7--2-2/7-7--2-2/7-7--|
D|-7-7-7-7-7-/ 4-4-4-4-4-4----2-2/7-7--2-2/7-7--2-2/7-7--2-2/7-7--|
So saddle up for the ride of your life....   Repeat times 2

[ Tab from: http://www.guitartabs.cc/tabs/m/murderdolls/welcome_to_the_strange_tab_ver_2.html ]
chorus
e|-----------------------------------------------------------|
B|-----------------------------------------------------------|
G|-----------------------------------------------------------|
D|-7-7-7-7-7-7-7-7-7-7-7-7-7-7--6-6-6-6-6-6-6--4-4--2-2-2-2--|
A|-7-7-7-7-7-7-7-7-7-7-7-7-7-7--6-6-6-6-6-6-6--4-4--2-2-2-2--|
D|-7-7-7-7-7-7-7-7-7-7-7-7-7-7--6-6-6-6-6-6-6--4-4--2-2-2-2--|
Well you can re arrange the strange an derranged.....

repeat once

e|-------------------------------------|
B|-------------------------------------|
G|-------------------------------------|
D|-2-2/7-7--2-2/7-7--2-2/7-7--2-2/7-7--|
A|-2-2/7-7--2-2/7-7--2-2/7-7--2-2/7-7--|
D|-2-2/7-7--2-2/7-7--2-2/7-7--2-2/7-7--|
The sign up ahead says, welcome to the strange      Repeat times 2

Solo
really easy this. an its right.
e|---------------------------------------------------------------------------|
B|---------------------------------------------------------------------------|
G|-9-9--8--9-9--8--9-9-9-9-11--/--14--13-13--11--13-13--11--13-13-13-13--14--|
D|---------------------------------------------------------------------------|
A|---------------------------------------------------------------------------|
D----------------------------------------------------------------------------|
Repeat twice

Pre chorus
e|----------------------------------------------------------------|
B|----------------------------------------------------------------|
G|----------------------------------------------------------------|
D|-7-7-7-7-7-/-4-4-4-4-4-4----2-2/7-7--2-2/7-7--2-2/7-7--2-2/7-7--|
A|-7-7-7-7-7-/-4-4-4-4-4-4----2-2/7-7--2-2/7-7--2-2/7-7--2-2/7-7--|
D|-7-7-7-7-7-/ 4-4-4-4-4-4----2-2/7-7--2-2/7-7--2-2/7-7--2-2/7-7--|
So saddle up for the ride of your life....   Repeat times 2

Break

Then repeat pre chorus another 2 times then....


chorus
e|--------------------------------------------------|
B|--------------------------------------------------|
G|--------------------------------------------------|
D|-7-7-7-7-7-7-7-7-7-7-7-7-7-7--6-6-6-6-6-6-6--4-4--|
A|-7-7-7-7-7-7-7-7-7-7-7-7-7-7--6-6-6-6-6-6-6--4-4--|
D|-7-7-7-7-7-7-7-7-7-7-7-7-7-7--6-6-6-6-6-6-6--4-4--|
Well you can re arrange the strange an derranged.....

e|-------------------------------------|
B|-------------------------------------|
G|-------------------------------------|
D|-2-2/7-7--2-2/7-7--2-2/7-7--2-2/7-7--|
A|-2-2/7-7--2-2/7-7--2-2/7-7--2-2/7-7--|
D-2-2/7-7--2-2/7-7--2-2/7-7--2-2/7-7---|
The sign up ahead says, welcome to the strange      Repeat times 2


Outro. guitar one plays this.
e|-----------------------------------------------------|
B|-----------------------------------------------------|
G|-----------------------------------------------------|
D|-2-2-2-2-2-2-2-2--4-4--7-7--6-6-6-6-6-6-6-6-6-6-6-6--|
A|-2-2-2-2-2-2-2-2--4-4--7-7--6-6-6-6-6-6-6-6-6-6-6-6--|
D|-2-2-2-2-2-2-2-2--4-4--7-7--6-6-6-6-6-6-6-6-6-6-6-6--|


guitar two plays
e|-----------------------------------------------------------------------------|
B|-----------------------------------------------------------------------------|
G|--9-9-9-9-9-9--9---9-9-9--9-9-9--9-9-9-9--9-9-9-9-9-9------------------------|
D|-----------------------------------------------------------------------------|
A|-----------------------------------------------------------------------------|
D|-----------------------------------------------------------------------------|

Fades out to end.


you see its easy.


| /  slide up
| \  slide down
| x  Mute note
===============================================================================
Comments