Murderdolls - Slit My Wrist Chords & Tabs

 

Slit My Wrist Chords & Tabs

Murderdolls Chords & Tabs

Version: 3 Type: Tab 0 ratings
1 star 2 stars 3 stars 4 stars 5 stars
comments

Slit My Wrist Tab

I saw teh last version of this and no offense...but it was pretty shit.
Murderdolls do not use drop D tuning! It is standard.

(h) harmonics

Intro
----------------------------------------------------
----------------------------------------------------
---------------------------------------------------- x 4
----------------------------------------------------
----------------------------------------------------
-0-0-3h-3h-0-0-3h-3h-0-0-3h-3h-0--0-0-0-0-3-3-3-3-3-
[ Tab from: http://www.guitartabs.cc/tabs/m/murderdolls/slit_my_wrist_tab_ver_3.html ]
----------------------------------------------------
----------------------------------------------------
---------------------------------------------------- x 4
----------------------------------------------------
-2-2-------2-2-------2-2-------2--2-2-2-2-5-5-5-5-5-
-0-0-3h-3h-0-0-3h-3h-0-0-3h-3h-0--0-0-0-0-3-3-3-3-3-

Verse
----------------------------------------------------
----------------------------------------------------
---------------------------------------------------- 
----------------------------------------------------
----------------------------------------------------
-0-0-3h-3h-0-0-3h-3h-0-0-3h-3h-0--0-0-0-0-3-3-3-3-3-

Chorus
----------------------------------------------------
----------------------------------------------------
---------------------------------------------------- 
-7-----------------7--------8-8-8-7-7-7-5-5---------
-5-5--x-x--7-8-x-x-5-5------6-6-6-5-5-5-3-3---------
---3--x-x--5-6-x-x---3--x-x-------------------------

Thats about it really, i dont kno the solo, just listen to the song to get the
rhythm, its basic enough. Check out my other tabs
Comments