Murderdolls - She Was A Teenage Zombie Chords & Tabs

 

She Was A Teenage Zombie Chords & Tabs

Murderdolls Chords & Tabs

Version: 1 Type: Bass Tab

She Was A Teenage Zombie Bass Tab

   
-------------------------------------------------------------------------------
	              She was a teenage zombie - murderdolls
-------------------------------------------------------------------------------

Tabbed By : Taylor Smith
e-mail: private

Tuning: Standard


  Intro   0:25
G|---------------------------------------------------------------------------|
D|---------------------------------------------------------------------------|
A|------------------------------------------------------------------7\-3-----|
E|-/-2333-2333-2333-2333-2333-2333-2333-2333-/--2333-2333-2333-2333----------|

G|---------------------------------------------------------------------------|
D|---------------------------------------------------------------------------|
A|----------------------7\-3-------------------------3-----------------------|
E|--2333-2333-2333-2333-------2333-2333-2333-2333--0----2333-2333-2333-2333--|


  Verse   0:48
G|---------------------------------------------------------------------------|
D|---------------------------------------------------------------------------|
A|-----------------------7\3---------------------7\3-----------------------3-|
E|--2333-2333-2333-2333------2333-2333-2333-2333-----2333-2333-2333-2333-0---|

G|------------------------------------------------55-66-777777777777777\-----|
D|---------------------------------------55-66-77----------------------------|
A|-----------------------7\3/5--55-77-88-------------------------------------|
E|--2333-2333-2333-2333------------------------------------------------------|


  Chorus  1:11
G|---------------------------------------------------------------------------|
D|---------------------------------------------------------------------------|
A|---------------------------------------------------------------------------|
E|--33333333-11111111-0000000000000000---33333333-11111111-0000000000000000--|

G|---------------------------------------------------------------------------|
D|---------------------------------------------------------------------------|
A|---------------------------------------------------------------------------|
E|--33333333-11111111-0000000000000000---33333333-11111111-0000000000000000-3|

[ Tab from: http://www.guitartabs.cc/tabs/m/murderdolls/she_was_a_teenage_zombie_btab.html ]
  Verse   1:32
G|---------------------------------------------------------------------------|
D|---------------------------------------------------------------------------|
A|-----------------------7\3---------------------7\3-----------------------3-|
E|--2333-2333-2333-2333------2333-2333-2333-2333-----2333-2333-2333-2333-0---|

G|------------------------------------------------55-66-777777777777777\-----|
D|---------------------------------------55-66-77----------------------------|
A|-----------------------7\3/5--55-77-88-------------------------------------|
E|--2333-2333-2333-2333------------------------------------------------------|


Chorus  1:55
G|---------------------------------------------------------------------------|
D|---------------------------------------------------------------------------|
A|---------------------------------------------------------------------------|
E|--33333333-11111111-0000000000000000---33333333-11111111-0000000000000000--|

G|---------------------------------------------------------------------------|
D|---------------------------------------------------------------------------|
A|---------------------------------------------------------------------------|
E|--33333333-11111111-0000000000000000---33333333-11111111-0000000000000000--|


Solo    2:15
G|---------------------------------------------------------------------------|
D|---------------------------------------------------------------------------|
A|---------------------------------------------------------------------------|
E|--33333333-11111111-0000000000000000---33333333-11111111-0000000000000000--|

G|---------------------------------------------------------------------------|
D|---------------------------------------------------------------------------|
A|---------------------------------------------------------------------------|
E|--33333333-11111111-0000000000000000---33333333-11111111-0000000000000000--|


Chorus  2:34
G|---------------------------------------------------------------------------|
D|---------------------------------------------------------------------------|
A|---------------------------------------------------------------------------|
E|--33333333-11111111-0000000000000000---33333333-11111111-0000000000000000--|

G|---------------------------------------------------------------------------|
D|---------------------------------------------------------------------------|
A|---------------------------------------------------------------------------|
E|--33333333-11111111-0000000000000000---33333333-11111111-0000000000000000--|


Ending
G|-------|
D|-------|
A|-------|
E|--3\---|




| /  slide up
| \  slide down
| h  hammer-on
| p  pull-off
| ~  vibrato
| +  harmonic
| x  Mute note
===============================================================================