Murderdolls - People Hate Me Chords & Tabs

 

People Hate Me Chords & Tabs

Murderdolls Chords & Tabs

Version: 3 Type: Tab 0 ratings
1 star 2 stars 3 stars 4 stars 5 stars
comments

People Hate Me Tab

   
  Murderdolls
 "People Hate Me"
  from "Beyond the Valley of the Murderdolls"
  Drop D
 (I've put it into Drop D,'cause it's funnier to play and sounds
  a lot heavier than in the regular tunin')
  
  tabbed by Alexander Heinrich

... Pm
/   slide up
\   slide down


Intro

------------------------------------------------------------------------------
------------------------------------------------------------------------------
------------------------------------------------------------------------------
------------------------------------------------------------------------------
-------------2-1------------------------------2-1-----------5-4-3-------------
-2-2-3-4-5-2-----2-3-4-5-2-5-4-3--2-2-3-4-5-2-----2-3-4-5-2-------------------


------------------------------------------------------------------------------
------------------------------------------------------------------------------
------------------------------------------------------------------------------
------------------------------------------------------------------------------
----------------------------------2--4--6/7-6-4-------------------------------
-------------2-1------------------2--4--6/7-6-4-------------------------------
-2-2-3-4-5-2-----2-3-4-5-2-5-4-3--2-24-26/7-6-4-5-4-3-------------------------
                                                . . .

Verse

----------------------------------
----------------------------------
----------------------------------
----------------------------------
-------------2-1------------------
-2-2-3-4-5-2-----2-3-4-5-2-5-4-3--


Bit halfway through the Verse

-------------------------------------------------------------------------
-------------------------------------------------------------------------
-------------------------------------------------------------------------
-4-4-4-4-4--2-4-4-4-4-4--2-4-4-2-4-4--2-4/7-7-7-7------------------------
-4-4-4-4-4--2-4-4-4-4-4--2-4-4-2-4-4--2-4/7-7-7-7------------------------
-4-4-4-4-4--2-4-4-4-4-4--2-4-4-2-4-4--2-4/7-7-7-7------------------------

Pre-Chorus
[ Tab from: http://www.guitartabs.cc/tabs/m/murderdolls/people_hate_me_tab_ver_3.html ]
-------------------------------------
-------------------------------------
-------------------------------------
-------------------------------------
-0-0-1-2-0-0-1-2--5-4-4-4------------
-------------------------------------

Fill before Chorus

------------------------------
------------------------------
------------------------------
--11\10\9\8-------------------
--11\10\9\8-------------------
--11\10\9\8-------------------
GRADUELLY SLIDE DOWN!!!

Chorus

------------------------------------------------------------------------
------------------------------------------------------------------------
------------------------------------------------------------------------
--5--2--9-9-9\7-7-7-7-7-7--5--2--11-11-11\7-7-7-7-7-7-------------------
--5--2--9-9-9\7-7-7-7-7-7--5--2--11-11-11\7-7-7-7-7-7-------------------
--5--2--9-9-9\7-7-7-7-7-7--5--2--11-11-11\7-7-7-7-7-7-------------------


Part before the Solo

------------------------------------------------------------------------
------------------------------------------------------------------------
------------------------------------------------------------------------
-2---2-2-2-2---5-5/6-6/7-7--2---7-7/8-8/9-9/10/11/12-12-----------------
-2---2-2-2-2---5-5/6-6/7-7--2---7-7/8-8/9-9/10/11/12-12-----------------
-2---2-2-2-2---5-5/6-6/7-7--2---7-7/8-8/9-9/10/11/12-12-----------------
     . . .

Part, played underlayin' the Solo

----------------------------------
----------------------------------
----------------------------------
-2-2-3-4-2-2-3-4--7-6-------------
-2-2-3-4-2-2-3-4--7-6-------------
-2-2-3-4-2-2-3-4--7-6-------------

(When ya playin' it for the 4th time,you've to Pm the last 2 chords)


Outro

--------------------------------
--------------------------------
--------------------------------
--------------------------------
-0-0-1-2-0-0-1-2-5-4------------
--------------------------------
   . . . . . . . . .


Heh folks!i know this tab isn't complete at all...so i please all ya freakin'
people out there to finish it,right!!..in this song there's such a damned ass
kickin' solo..so, PLEASE, ANY OF YA GUITAR GODS HAVE TO FIGURE IT OUT!!

comments are very welcome...send 'em to  jazzstyle@web.de

                 /**\KeEp oN RoCkiN' FoLkS/**\
Comments