Murderdolls - Love At First Fright Chords & Tabs

 

Love At First Fright Chords & Tabs

Murderdolls Chords & Tabs

Version: 7 Type: Tab 0 ratings
1 star 2 stars 3 stars 4 stars 5 stars
comments

Love At First Fright Tab

   
Song: “Love At First Fright”
By: “Murderdolls”
Album: “Beyond The Valley Of The Murderdolls”
Tabt by: BoH, The Most Of You Don’t Give A Fuck

Original by “The Frankenstein Drag Queens From Planet 13” (is a band from the
Nineties, and the songs on Beyond The Valley Of The Murderdolls are from some of
there old albums. Some of the members in “The Frankenstein Drag Queens From
Planet 13” also appear in Murderdolls.

Intro: Both Guitar
            Pm.............
E|--------------------------
B|--------------------------
G|-5~-----------------------
D|-5~-5~-7~-3-3-3-3-5-5-5-5-
A|-3~-5~-7~-3-3-3-3-5-5-5-5-
D|----5~-7~-3-3-3-3-5-5-5-5-

Riff 1: Both Guitar
E|---------------------------------------------------------------
B|---------------------------------------------------------------
G|-5-5-5-5-5-5-5-5-----------------------------------------------
D|-5-5-5-5-5-5-5-5-5-5-5-5-5-5-5-5-7-7-7-7-7-7-7-3-3-3-3-5-5-5-5-
A|-3-3-3-3-3-3-3-3-5-5-5-5-5-5-5-5-7-7-7-7-7-7-7-3-3-3-3-5-5-5-5-
D|-----------------5-5-5-5-5-5-5-5-7-7-7-7-7-7-7-3-3-3-3-5-5-5-5-

Riff 2: Both Guitar
E|-----------------------------------------------------------------
B|-----------------------------------------------------------------
G|-----------------------------------------------------------------
D|-3-3-3-3-5-x-x-x-3-3-3-3-5-x-x-x-3-3-3-3-5-x-x-x-3-3-3-3-5-5-5-5-
A|-3-3-3-3-5-x-x-x-3-3-3-3-5-x-x-x-3-3-3-3-5-x-x-x-3-3-3-3-5-5-5-5-
D|-3-3-3-3-5-x-x-x-3-3-3-3-5-x-x-x-3-3-3-3-5-x-x-x-3-3-3-3-5-5-5-5-
[ Tab from: http://www.guitartabs.cc/tabs/m/murderdolls/love_at_first_fright_tab_ver_7.html ]
Riff 3: 1st Guitar
E|---------------------------------------------------------------
B|---------------------------------------------------------------
G|-5-5-5-5-5-5-5-5-----------------------------------------------
D|-5-5-5-5-5-5-5-5-5-5-5-5-5-5-5-5-7-7-7-7-7-7-7-3-3-3-3-5-5-5-5-
A|-3-3-3-3-3-3-3-3-5-5-5-5-5-5-5-5-7-7-7-7-7-7-7-3-3-3-3-5-5-5-5-
D|-----------------5-5-5-5-5-5-5-5-7-7-7-7-7-7-7-3-3-3-3-5-5-5-5-
  2nd Guitar
E|-------------------------------------------------------------------------
B|-------------------------------------------------------------------------
G|-17-17-16-16-14-14-12-12-17-17-16-16-14-14-12-12-17-17-16-16-14-14-12-12-
D|--x--x--x--x--x--x--x--x--x--x--x--x--x--x--x--x--x--x--x--x--x--x—x--x--
A|-15-15-14-14-12-12-10-10-15-15-14-14-12-12-10-10-15-15-14-14-12-12-10-10-
D|-------------------------------------------------------------------------
 |
E|-------------------------
B|-------------------------
G|-10-10-10-10-12-12-12-12-
D|--x--x--x--x--x--x--x--x-
A|--8--8--8--8-10-10-10-10-
D|-------------------------

Riff 4: (Listen to get the rhythm) 
E|-------------------------------------
B|-------------------------------------
G|-5-x-x-5-x-5-5-x-5-x-x-5-x-x-5-6-4-5-
D|-5-x-x-5-x-5-5-x-5-x-x-5-x-x-5-6-4-5-
A|-3-x-x-3-x-3-3-x-3-x-x-3-x-x-3-4-2-3-
D|-------------------------------------

Song form:
(Drums)
Intro
Riff 1
Riff 2
Riff 3 x2
Riff 4
Riff 3 (The same as in riff 4)
Riff 1
Riff 2
Riff 3
Here is a solo, but sorry... Under the solo is played:
- Riff 1 (The same as in riff 4)
- Riff 1
Riff 2
Riff 3
Riff 1

You have to listen to get the ending rhythm. 
There is some sound and fills here and there. 

Cheers Fuckers!!!
Comments