Murderdolls - Love At First Fright Chords & Tabs

 

Love At First Fright Chords & Tabs

Murderdolls Chords & Tabs

Version: 10 Type: Tab 0 ratings
1 star 2 stars 3 stars 4 stars 5 stars
comments

Love At First Fright Tab

   
This is my first tab i'm only 13 but i think i did a good job so here i go

Band:Murderdolls
Song:Love at first fright
Tuneing:EADGBe
Tab Key:
pm=Palm Mute
.=chord to palm mute
,=Light Palm mute
/=Slide up
x=Mute string/chord

Intro
e|------------------------|
B|------------------------|
G|5-----------------------|
D|5----5----7----3333-5555|
A|3----5----7----3333-5555|
E|-----3----5----1111-3333|
pm                ... ....

Verse 1
e|------------------------------------|
B|------------------------------------|
G|55555555----------------------------|
D|55555555-55555555-77777777-3333-5555|
A|33333333-55555555-77777777-3333-5555|
E|---------33333333-55555555-1111-3333|

Pre Chorus
e|-------------------------------------------|
B|-------------------------------------------|
G|-------------------------------------------|
D|3333/55555-3333\55555-3333\55555-33333-5555|
A|3333/55555-3333\55555-3333\55555-33333-5555|
E|1111/33333-1111\33333-1111\33333-11111-3333|
pm      ....       xxxx       ....  ,,,, ,,,,

Chorus Guitar 1
e|------------------------------------|
B|------------------------------------| 2x
G|55555555----------------------------|
D|55555555-55555555-77777777-3333-5555|
A|33333333-55555555-77777777-3333-5555|
E|---------33333333-55555555-1111-3333|

Chorus Guitar 2 (whole chorus guitar 2 2x)
e|-----------------------------------------------|
B|-----------------------------------------------| 2x
G|17-17-17-17-16-16-16-16-14-14-14-14-12-12-12-12|
D|-x--x--x--x--x--x--x--x--x--x--x--x--x--x--x--x|
A|15-15-15-15-14-14-14-14-12-12-12-12-10-10-10-10|
E|-----------------------------------------------|
Then play...
e|-----------------------------------------------------------------------|
B|-----------------------------------------------------------------------|
G|17-17-17-17-16-16-16-16-14-14-14-14-12-12-12-12-10-10-10-10-12-12-12-12|
D|-x--x--x--x--x--x--x--x--x--x--x--x--x--x--x--x--x--x--x--x--x--x--x--x|
A|15-15-15-15-14-14-14-14-12-12-12-12-10-10-10-10--8--8--8--8-10-10-10-10|
E|-----------------------------------------------------------------------|

Little Riff Thingy(its hard to tab this part but listen to the song and you'll get the it)
e|-------------------|
B|-------------------|
G|5555555555555-575-5|
D|5555555555555-575-5|
A|3333333333333-353-3|
E|-------------------|
pm . .  .  . .  ...    

Verse 2(weird struming listen to the song to get it right)
e|-----------------------------|
B|-----------------------------|
G|55555------------------------|
D|55555-55555-77777-33333-55555|
A|33333-55555-77777-33333-55555|
E|------33333-55555-11111-33333|
pm .     .     .     .

e|------------------------------------|
B|------------------------------------|
G|55555555----------------------------|
D|55555555-55555555-77777777-3333-5555|
A|33333333-55555555-77777777-3333-5555|
E|---------33333333-55555555-1111-3333|

Pre Chorus
e|-------------------------------------------|
B|-------------------------------------------|
G|-------------------------------------------|
D|3333/55555-3333/55555-3333/55555-33333-5555|
A|3333/55555-3333/55555-3333/55555-33333-5555|
E|1111/33333-1111/33333-1111/33333-11111-3333|
pm      ....       xxxx       ....  ,,,, ,,,,

Chorus 2 Guitar 1
e|------------------------------------|
B|------------------------------------|
G|55555555----------------------------|
D|55555555-55555555-77777777-3333-5555|
A|33333333-55555555-77777777-3333-5555|
E|---------33333333-55555555-1111-3333|

e|----------------------------------------|
B|----------------------------------------|
G|55555555--------------------------------|
D|55555555-55555555-77777777-9999-11111111|
A|33333333-55555555-77777777-9999-11111111|
E|---------33333333-55555555-7777--9-9-9-9|
[ Tab from: http://www.guitartabs.cc/tabs/m/murderdolls/love_at_first_fright_tab_ver_10.html ]
Chorus Guitar 2(whole chorus guitar 2 2x)
e|-----------------------------------------------|
B|-----------------------------------------------| 2x
G|17-17-17-17-16-16-16-16-14-14-14-14-12-12-12-12|
D|-x--x--x--x--x--x--x--x--x--x--x--x--x--x--x--x|
A|15-15-15-15-14-14-14-14-12-12-12-12-10-10-10-10|
E|-----------------------------------------------|
Then play...
e|-----------------------------------------------------------------------|
B|-----------------------------------------------------------------------|
G|17-17-17-17-16-16-16-16-14-14-14-14-12-12-12-12-10-10-10-10-12-12-12-12|
D|-x--x--x--x--x--x--x--x--x--x--x--x--x--x--x--x--x--x--x--x--x--x--x--x|
A|15-15-15-15-14-14-14-14-12-12-12-12-10-10-10-10--8--8--8--8-10-10-10-10|
E|-----------------------------------------------------------------------|

Under Solo Guitar 1
e|-----------------------------|
B|-----------------------------|
G|55555------------------------|
D|55555-55555-77777-33333-55555|
A|33333-55555-77777-33333-55555|
E|------33333-55555-11111-33333|
pm .     .     .     .

e|------------------------------------|
B|------------------------------------|
G|55555555----------------------------|
D|55555555-55555555-77777777-3333-5555|
A|33333333-55555555-77777777-3333-5555|
E|---------33333333-55555555-1111-3333|

e|------------------------------------|
B|------------------------------------|
G|55555555----------------------------|
D|55555555-55555555-77777777-3333-5555|
A|33333333-55555555-77777777-3333-5555|
E|---------33333333-55555555-1111-3333|

Solo Guitar 2 (sorry couldnt tab that i'm not that good yet)

Pre Chorus 2 (only diffrence is no light palm mute at the end with a pick slide)
e|-------------------------------------------------------|
B|-------------------------------------------------------|
G|-------------------------------------------------------|
D|3333/55555-3333\55555-3333\55555-3333-5555-------------|
A|3333/55555-3333\55555-3333\55555-3333-5555-(pick slide)|
E|1111/33333-1111\33333-1111\33333-1111-3333-------------|
pm      ....       xxxx       ....  

Chorus Guitar 1
e|------------------------------------|
B|------------------------------------| 2x
G|55555555----------------------------|
D|55555555-55555555-77777777-3333-5555|
A|33333333-55555555-77777777-3333-5555|
E|---------33333333-55555555-1111-3333|

Chorus Guitar 2(whole chorus guitar 2 2x)
e|-----------------------------------------------|
B|-----------------------------------------------| 2x
G|17-17-17-17-16-16-16-16-14-14-14-14-12-12-12-12|
D|-x--x--x--x--x--x--x--x--x--x--x--x--x--x--x--x|
A|15-15-15-15-14-14-14-14-12-12-12-12-10-10-10-10|
E|-----------------------------------------------|
Then play...
e|-----------------------------------------------------------------------|
B|-----------------------------------------------------------------------|
G|17-17-17-17-16-16-16-16-14-14-14-14-12-12-12-12-10-10-10-10-12-12-12-12|
D|-x--x--x--x--x--x--x--x--x--x--x--x--x--x--x--x--x--x--x--x--x--x--x--x|
A|15-15-15-15-14-14-14-14-12-12-12-12-10-10-10-10--8--8--8--8-10-10-10-10|
E|-----------------------------------------------------------------------|

Outro
e|---------------------------------------------------------------|
B|---------------------------------------------------------------|
G|5-5-5-5-5-5-5-5-7-7-7-7-7-7-7-7-9-9-9-9-9-9-9-9-5-5-5-5-7-7-7-7|
D|x-x-x-x-x-x-x-x-x-x-x-x-x-x-x-x-x-x-x-x-x-x-x-x-x-x-x-x-x-x-x-x|
A|3-3-3-3-3-3-3-3-5-5-5-5-5-5-5-5-7-7-7-7-7-7-7-7-3-3-3-3-5-5-5-5|
E|---------------------------------------------------------------|

e|-------------------------------------------------------------------------|
B|-------------------------------------------------------------------------|
G|5-5-5-5-5-5-5-5-7-7-7-7-7-7-7-7-9-9-9-9-9-9-9-9-5-5-5--5-5-5--7-7-7--7-7-7
D|x-x-x-x-x-x-x-x-x-x-x-x-x-x-x-x-x-x-x-x-x-x-x-x-x-x-x--x-x-x--x-x-x--x-x-x
A|3-3-3-3-3-3-3-3-5-5-5-5-5-5-5-5-7-7-7-7-7-7-7-7-3-3-3--3-3-3--5-5-5--5-5-5
E|-------------------------------------------------------------------------|

Ending
e|------------------|
B|------------------|
G|5----------------5|
D|5---(pick slide)-5|
A|3----------------3|
E|------------------|

Well thats it tell me what you think email me at romancewithinachaoticnightmare@yahoo.com
Comments