Murderdolls - Love At First Fright Chords & Tabs

 

Love At First Fright Chords & Tabs

Murderdolls Chords & Tabs

Version: 1 Type: Tab 0 ratings
1 star 2 stars 3 stars 4 stars 5 stars
comments

Love At First Fright Tab

   
Murderdolls - Love at First Fright

Firtsly, I have no idea if this is right. but it sounds pretty damn close. 
This is the variation my band play, minus the solo bcuz i aint figured it out yet.
Any suggestions, email me at Blindedbypride@hotmail.com - have fun!!

Drop D Tunin
* - Cut cord short (dont ring out)
# - scratch noise
. - Palm Mute


Intro

|---------------------------------------------------------|
|---------------------------------------------------------|
|---------------------------------------------------------|
|-5---5-5-5---5/7-7---7\3-3-3-3-3-3-3-3-3-5-5-5-5-5-5-5-5-|
|-3---3-3-5---5/7-7---7\3-3-3-3-3-3-3-3-3-5-5-5-5-5-5-5-5-|
|---------5---5/7-7---7\3-3-3-3-3-3-3-3-3-5-5-5-5-5-5-5-5-|

Riff A

|---------------------------------------------------------------------------------------|
|---------------------------------------------------------------------------------------|
|---------------------------------------------------------------------------------------|
|-5-5-5-5-5-5-5-5-5-5-5-5-5-5-5-5-5-5-5-5-5-7-7-7-7-7-7-7-7-7-7-7-3-3-3-3-3-5-5-5-5-5-5-|
|-3-3-3-3-3-3-3-3-3-3-5-5-5-5-5-5-5-5-5-5-5-7-7-7-7-7-7-7-7-7-7-7-3-3-3-3-3-5-5-5-5-5-5-|
|---------------------5-5-5-5-5-5-5-5-5-5-5-7-7-7-7-7-7-7-7-7-7-7-3-3-3-3-3-5-5-5-5-5-5-|
[ Tab from: http://www.guitartabs.cc/tabs/m/murderdolls/love_at_first_fright_tab.html ]
Riff B

|---------------------------------------------------------------------------------------------------------|
|---------------------------------------------------------------------------------------------------------|
|---------------------------------------------------------------------------------------------------------|
|-3-3-3-3-3-5-#-#-#-#-#-#-#-3-3-3-3-3-5-#-#-#-#-#-#-#-3-3-3-3-3-5-#-#-#-#-#-#-#-3-3-3-3-3-5-5-5-5-5-5-5-5-|
|-3-3-3-3-3-5-#-#-#-#-#-#-#-3-3-3-3-3-5-#-#-#-#-#-#-#-3-3-3-3-3-5-#-#-#-#-#-#-#-3-3-3-3-3-5-5-5-5-5-5-5-5-|
|-3-3-3-3-3-5-#-#-#-#-#-#-#-3-3-3-3-3-5-#-#-#-#-#-#-#-3-3-3-3-3-5-#-#-#-#-#-#-#-3-3-3-3-3-5-5-5-5-5-5-5-5-|

Riff C

|--------------------------------------------|
|--------------------------------------------|
|--------------------------------------------|
|-5*-5*5*-5*5*-5*5*5*5*5*-5*5*-5*5*-0-5-4-3--|
|-3*-3*3*-3*3*-3*3*3*3*3*-3*3*-3*3*-0-5-4-3--|
|-----------------------------------0-5-4-3--|
                                    . . . .


Guitar 2 Riff

|-------------------------|	|--------|
|-------------------------|	|--------|
|-5-4-2-0-5-4-2-0-5-4-2-0-|	|------5-|
|-------------------------|	|-3-0--5-|
|-------------------------|	|------3-|
|-------------------------|	|--------|


Tabbed by Huk
Comments