Murderdolls - Love At First Fright Solo Chords & Tabs

 

Love At First Fright Solo Chords & Tabs

Murderdolls Chords & Tabs

Version: 1 Type: Tab 0 ratings
1 star 2 stars 3 stars 4 stars 5 stars
comments

Love At First Fright Solo Tab

Solo for Love At First Fright
/ = bend

|-----------|-----------------------|-----------------|------------------|
|-----------|-----------------------|-----------------|------------------|
|--------7-|--9-7------7---------|-----------------|------------------|
|-----------|--------10-----10---|--7>9--5>5---|----5-----8-----|
|--10-----|------------------------|-----------------|-8---8--7---7-|
|-----------|-----------------------|------------------|----------------|


|---------------|---------------------------|-----------------------|--------------|
|---------------|---------------------------|-----------------------|--------------|
|---------------|---------------------------|-----------------------|-------9-----|
|---------------|---------------------------|-----------------------|--10--------|
|-8>7---------|-----5--------------------|--------3-------5>5-|--------------|
|--------8>8--|--8----8--7>8>7--5---|--3--1---3>3-------|--------------|
[ Tab from: http://www.guitartabs.cc/tabs/m/murderdolls/love_at_first_fright_solo_tab.html ]
|-----------------|------------------------------|------12---|-13>12----15>12--------
|-----------------|--10--10-12-13/13/13--|--13-------|---------13----------13----
|-9--10--12---|-------------------------------|------------|------------------------------
|-----------------|-------------------------------|------------|------------------------------
|-----------------|-------------------------------|------------|------------------------------
|-----------------|------------------------------|-------------|------------------------------

This part goes really fast

|-13>12----15>12------15>12-------12---------------------------------|---------------------------------------------|
|----------13----------13-----------13-----13>12----14---12---14-----|---------------------------------------------|
|---------------------------------------------------------------------------------|-12>10>9---10>9----------------------|
|---------------------------------------------------------------------------------|-----------------------12--10--12--10--|
|---------------------------------------------------------------------------------|---------------------------------------------|
|---------------------------------------------------------------------------------|---------------------------------------------|

Comments