Murderdolls - Kill Miss America Chords & Tabs

 

Kill Miss America Chords & Tabs

Murderdolls Chords & Tabs

Version: 2 Type: Tab 0 ratings
1 star 2 stars 3 stars 4 stars 5 stars
comments

Kill Miss America Tab

   
-----------------------------------------------------------------------------
                       Murderdolls - Kill Miss America
-----------------------------------------------------------------------------
                         Submitted By: Thienskater
                       
                       Standard Tuning: E A D G B E

[ Tab from: http://www.guitartabs.cc/tabs/m/murderdolls/kill_miss_america_tab_ver_2.html ]
Intro:
e|-----------------------------|
B|-----------------------------|
G|----6/7-7-8/9-8/9------------|
D|--5-6/7-7-8/9-8/9------------| x2
A|--5-4/5-7-6/7-6/7------------|
E|--3-----5--------------------|

Verse:
e|-----------------------------|
B|-----------------------------|
G|-----------7777--------------|           
D|--77777777-7777-9999---------| x2
A|--77777777-5555-9999---------|
E|--55555555------7777---------|

e|-----------------------------|
B|-----------------------------|
G|-----------------------------|
D|--2222-5555-7-5-7-5-7-5-7-5--| x2
A|--2222-5555-7-5-7-5-7-5-7-5--|
E|--0000-3333-5-3-5-3-5-3-5-3--|
Comments