Murderdolls - Graverobbing Usa Chords & Tabs

 

Graverobbing Usa Chords & Tabs

Murderdolls Chords & Tabs

Version: 1 Type: Tab 0 ratings
1 star 2 stars 3 stars 4 stars 5 stars
comments

Graverobbing Usa Tab

   
Song - GraverobbIng USA
Artist - The Murderdolls
Album - Beyond The Valley Of The Murderdolls
Tuning - E A D G B E
Questions/Comments to: hoganstillsucks@hotmail.com

  Intro/First part of verse:

  e --------------------------------------------------------
  B --------------------------------------------------------
  G --------------7-7-5/7-----5-5-3-5-----------------------
  D --5-5-3/5-----7-7-5/7-----5-5-3/5-----5-5-3/5-----------
  A --5-5-3/5-----5-5-3/5-----3-3-1/3-----5-5-3/5-----------
  E --3-3-1/3-----------------------------3-3-1/3-----------


  Second part of verse/chorus:
[ Tab from: http://www.guitartabs.cc/tabs/m/murderdolls/graverobbing_usa_tab.html ]
  e --------------------------------------------------------
  B --------------------------------------------------------
  G --------------77777777----55555555----------------------
  D --55555555----77777777----55555555----55555555----------
  A --55555555----55555555----33333333----55555555----------
  E --33333333----------------------------33333333----------


  Solo:
  e --------------------------------------------------------
  B ---7-6-5-7-6-43-----------------------------------------
  G ------------------7-6-5-7-6-43-43-----------------------
  D --------------------------------------------------------
  A --------------------------------------------------------
  E --------------------------------------------------------

  I'm not sure about the rest of the solo but I'll try and get it soon.
  It's a really fun song to play and it's dead easy...ENJOY!
Comments