Murderdolls - Die My Bride Chords & Tabs

 

Die My Bride Chords & Tabs

Murderdolls Chords & Tabs

Version: 5 Type: Tab 0 ratings
1 star 2 stars 3 stars 4 stars 5 stars
comments

Die My Bride Tab

   
hello all.  this ones my favourite murderdolls song especially after seeing 
the guys last november.

tuning-(low to high) E A D G B E
~ = let ring

Intro(i think it's on the organ but i've done it for you guys on the guitar)

E-------------------------  when the bass -12~---15~-14~----------
B-------------------------  kicks in      ------------------------
G-------------------------  play this--   ------------------------
D-------------------------                ------------------------
A---8---10-7-8---8//////--                ------------------------
E-8---8--------8-//////---                ------------------------
[ Tab from: http://www.guitartabs.cc/tabs/m/murderdolls/die_my_bride_tab_ver_5.html ]
Chorus Riff(the 9 12 11 is played over the top of the chords
just choose which one you want to play)
E----------------------------------------------------------------------
B----------------------------------------------------------------------
G-------------------------------------------------------------9--12-11-
D----------------------------------------------------------------------
A-2-2-4-5-2-2-----2-2-4-5-2-2-----2-2-4-5-2-2-----2-2-4-5-7-5-2~-5~-4~-
E-0-0-2-3-0-0-----0-0-2-3-0-0-----0-0-2-3-0-0-----0-0-2-3-5-3-0~-3~-2~-

Pre-Chorus
Guitar 1
E---------------------------
B-12----11----10----9-------
G-14B16-13B15-12B14-11B13---
D---------------------------
A---------------------------
E---------------------------

Guitar 2
E---------------------------
B---------------------------
G---------------------------
D-9-----8-----7-----6-------
A-9-----8-----7-----6-------
E-7-----6-----5-----4-------

that's pretty muchthe whole song just listen to the song and work out what to play where.
Comments