Murderdolls - Die My Bride Chords & Tabs

 

Die My Bride Chords & Tabs

Murderdolls Chords & Tabs

Version: 3 Type: Tab 0 ratings
1 star 2 stars 3 stars 4 stars 5 stars
comments

Die My Bride Tab

   
: Die My Bride :
: Murderdolls :
: Beyond the Valley of the Murderdolls :
Tuning: Drop D: (D, A, D, G, B, E)
Tabbed by: MIK MCDADE : MIK_MCDADE@hotmail.com

Note:
v = vibrato   
* = let ring  


E|--------------------
B|--------------------
G|--------------------
D|--------------------
A|--2--2--3--4--2--2--
D|--2--2--3--4--2--2--
   Riff 1 - Gtrs 1+2                                               

E|------------------------
B|------------------------
G|------------------------
D|------------------------
A|--2--2--3--4--7--5--2*--
D|--2--2--3--4--7--5--2*--
   Riff 2 - Gtrs 1+2               
[ Tab from: http://www.guitartabs.cc/tabs/m/murderdolls/die_my_bride_tab_ver_3.html ]
E|-----------------
B|-----------------
G|-----------------
D|-----------------
A|--10v---9v---7v--
D|-----------------
    Riff 3 - Gtr 1                                              

E|-------------
B|-------------
G|-------------
D|-------------
A|--5---4---2--
D|--5---4---2--
   Riff 3 - Gtr 2                                              

E|----------------
B|----------------
G|----------------
D|----------------
A|--9---8---7---6-
D|--9---8---7---6-
   Riff 4 - Gtrs 1+2    

How it is played (roughly)

repeat the following 3 times through:
Riff 1  x3
Riff 2  x1
Riff 3  x2
Riff 4  x4 

Riff 1  x3
Riff 2  x1


Then this once:
Riff 1  x3
Riff 2  x1
Riff 4  x4

Riff 1  x3
Riff 2  x1
Riff 1  x3
Riff 2  x1
Comments