Murderdolls - Die My Bride Chords & Tabs

 

Die My Bride Chords & Tabs

Murderdolls Chords & Tabs

Version: 2 Type: Tab 0 ratings
1 star 2 stars 3 stars 4 stars 5 stars
comments

Die My Bride Tab

INTRO:       
-0---3---2------------0---3---2-----------------------------------------|
------------------------------------------------------------------------|
------------------------------------------------------------------------|
------------------------------------------------------------------------|
------------------------------------------------------------------------|
------------------------------------------------------------------------|
I'd rather cut you up....   repeat this

 
then the chorus:
------------------|-----------------|--------------|--------------------|
------------------|-----------------|--------------|--------------------|
------------------|-----------------|--------------|--------------------|
------------------|-----------------|--------------|--------------------|
--2-2-3-4-2-2-----|--2-2-3-4-2-2----|--2-2-3-4-2-2-|--2-2-3-4-7-5-------|
--0-0-1-2-0-0-----|--0-0-1-2-0-0----|--0-0-1-2-0-0-|--0-0-1-2s5-3-------|
[ Tab from: http://www.guitartabs.cc/tabs/m/murderdolls/die_my_bride_tab_ver_2.html ]
Break:
--3~-----2~-----0--------------------------------------------------------
-------------------------------------------------------------------------
-------------------------------------------------------------------------
-------------------------------------------------------------------------
-------------------------------------------------------------------------
--------------------------------------------REPEAT 

Pre chorus
-7---6----5---4----------------------------------------------------------
-------------------------------------------------------------------------
-------------------------------------------------------------------------
-9---8----7---6----------------------------------------------------------
-9---8----7---6----------------------------------------------------------
-7---6----5---4----------------------------------------------------------
this should be done with 2 guitars


CHORUS	

BREAK

PreCHORUS

CHORUS
(AFTER THIS CHORUS PLAY PRECHORUS)
THEN REPEAT CHORUS AGAIN


My email address is oskysum@hotmail.com
i had fun tabbing this, cos i did n't like muderdolls at first, but this 
tune was so catchy. IT RULES!






Comments