Murderdolls - Die My Bride Chords & Tabs

 

Die My Bride Chords & Tabs

Murderdolls Chords & Tabs

Version: 2 Type: Bass Tab 0 ratings
1 star 2 stars 3 stars 4 stars 5 stars
comments

Die My Bride Bass Tab

   
Title: Die My Bride
Artist: The Murderdolls
Album: Beyond The Valley Of The Murderdolls

Instrument: 4 String Bass

Tuning: Standard (E A D G)

Hope it's correct!

Intro

G|-----------------------------------------------------------------------|
D|-----------------------------------------------------------------------|
A|-----------------------------------------------------------------------|
E|0000000000000000--333333333-2222222-0000000000000000-33333333-22222222-|

Bridge

G|------------------------------------------------------------------------|
D|------------------------------------------------------------------------|
A|------------------------------------------------------------------------|
E|-0-0-2-3-0-0--0-0-2-3-0-0--0-0-2-3-0-0--0-0-2-3-5-3-0---3--2---0--3---2-|

Verse                         
G|----------------------------------------------------------------------|
D|----------------------------------------------------------------------|X2
A|----------------------------------------------------------------------| 
E|0000000000000000-33333333-22222222-0000000000000000-33333333-22222222-|

Bridge

G|----------------|
D|----------------|
A|22-1-111--------| x4
E|--------55-4-444|

Chorus
[ Tab from: http://www.guitartabs.cc/tabs/m/murderdolls/die_my_bride_btab_ver_2.html ]
G|----------------------------------------------------------------|
D|----------------------------------------------------------------|
A|----------------------------------------------------------------|
E|002300--002300--002300--0023530-002300--002300--002300--0023530-|

Verse

G|----------------------------------------------------------------|
D|----------------------------------------------------------------|
A|----------------------------------------------------------------| x2
E|0000000000000000333333332222222200000000000000003333333322222222|

Bridge

G|----------------|
D|----------------|
A|22-1-111--------| x4
E|--------55-4-444|

Chorus

G|----------------------------------------------------------------|
D|----------------------------------------------------------------|
A|----------------------------------------------------------------|
E|002300--002300--002300--0023530-002300--002300--002300--0023530-|

G|-------------------------|
D|-------------------------|
A|2--2-1-1-1---------------| x4
E|-----------5-5--5-4-4--4-|

G|----------------------------------------------------------------|
D|----------------------------------------------------------------|
A|----------------------------------------------------------------|
E|002300--002300--002300--0023530-002300--002300--002300--0023530-|
Comments