Murderdolls - Dead In Hollywood Chords & Tabs

 

Dead In Hollywood Chords & Tabs

Murderdolls Chords & Tabs

Version: 4 Type: Bass Tab 0 ratings
1 star 2 stars 3 stars 4 stars 5 stars
comments

Dead In Hollywood Bass Tab

   
INTRO/VERSE 1

G---------------------------------
D---------------------------------   (x12)
A---------------------------------  
E--0-0-1-0------------------------


VERSE 2 (i)
     (a)    (b)(x4)
G----------|------------|
D----------|------------|
A----------|------------|
E--0-0-1-0-|-0-0--0-1-0-|
[ Tab from: http://www.guitartabs.cc/tabs/m/murderdolls/dead_in_hollywood_btab_ver_4.html ]
     
     (ii)(x2)
G------------------------------------------|
D------------------------------------------|
A------------------------------------------|
E-0-0--0-1-0--0-0--0-1-0--4444333322221111-|


G----------------------|-verse1|
D----------------------|--(x10)|
A----------------------|-------|
E--0-0-1-0--0--0-0-1-0-|-------|

THEN VERSE 2

CHOURS

G---------------------------|
D------------2---5555-3333--|(x2)
A---3----------2------------|
E-0---0-3-56----------------|

THEN VERSE (i)(a)     (x2)
THEN VERSE2 PART (ii) (x4)
THEN CHOURS           (x3)
THEN VERSE 2 PART (i)
THEN VERS 2 (a) to finish.............
Comments