Murderdolls - Dawn Of The Dead Chords & Tabs

 

Dawn Of The Dead Chords & Tabs

Murderdolls Chords & Tabs

Version: 1 Type: Tab 0 ratings
1 star 2 stars 3 stars 4 stars 5 stars
comments

Dawn Of The Dead Tab

   
drop d

E[-----------------------------
B[-----------------------------
G[-----------------------------
d[-12-12-11-11-7-12-12-11-11-4-
A[-12-12-11-11-7-12-12-11-11-4-
d[-12-12-11-11-7-12-12-11-11-4-  x2

do this in a wah effect the go to a heavy distortion for the next bit.

E[-----------------------------------------------------
B[-----------------------------------------------------
G[-----------------------------------------------------
d[-0-0-2-2-2-2-4-4-4-2-0-0-2-2-2-2-4-4-4-2-12-12-14-14-
A[-0-0-2-2-2-2-4-4-4-2-0-0-2-2-2-2-4-4-4-2-12-12-14-14-
d[-0-0-2-2-2-2-4-4-4-2-0-0-2-2-2-2-4-4-4-2-12-12-14-14-



E[-------------------------------------
B[-------------------------------------
G[-------------------------------------
d[-12-12-11-11-7-7-7-12-12-11-11-4-4-4-
A[-12-12-11-11-7-7-7-12-12-11-11-4-4-4-
d[-12-12-11-11-7-7-7-12-12-11-11-4-4-4-

[ Tab from: http://www.guitartabs.cc/tabs/m/murderdolls/dawn_of_the_dead_tab.html ]
E[-------------------------------------
B[-------------------------------------
G[-------------------------------------
d[-12-12-11-11-7-9-7-4-12-12-11-11-4-4-4-
A[-12-12-11-11-7-9-7-4-12-12-11-11-4-4-4-
d[-12-12-11-11-7-9-7-4-12-12-11-11-4-4-4-


E[-----------------------------------------------------
B[-----------------------------------------------------
G[-----------------------------------------------------
d[-0-0-2-2-2-2-4-4-4-2-0-0-2-2-2-2-4-4-4-2-12-12-14-14-
A[-0-0-2-2-2-2-4-4-4-2-0-0-2-2-2-2-4-4-4-2-12-12-14-14-
d[-0-0-2-2-2-2-4-4-4-2-0-0-2-2-2-2-4-4-4-2-12-12-14-14-

E[-----------------------------------------------------
B[-----------------------------------------------------
G[-----------------------------------------------------
d[-0-0-2-2-2-2-4-4-4-2-0-0-2-2-2-2-4-4-4-2-12-12-14-14-
A[-0-0-2-2-2-2-4-4-4-2-0-0-2-2-2-2-4-4-4-2-12-12-14-14-
d[-0-0-2-2-2-2-4-4-4-2-0-0-2-2-2-2-4-4-4-2-12-12-14-14-

OK SO I THINK THAT RIGHT, JUST TRY AND FADE IT OUT TOWARDS THE END. 
I DONT KNOW THE SOLO YET BUT ILL GET IT SOON. LATER AKKI

Comments