Murderdolls - Dawn Of The Dead Chords & Tabs

 

Dawn Of The Dead Chords & Tabs

Murderdolls Chords & Tabs

Version: 4 Type: Bass Tab

Dawn Of The Dead Bass Tab

Dawn of the Dead
Murderdolls
Beyond the Valley of the Murderdolls
Tabbed by Taylor Smith
Standard Tuning 
(EADG)


  Intro
G|---------------------------------------|
D|---------------------------------------|
A|-7777-6666----------7777-6666----------|
E|-----------77777777-----------44444444-|

G|------------------------------------------|
D|------------------------------------------|
A|-7777-6666----------7777-6666-------------|
E|-----------77777777-----------444444-/14\-|

G|------------------------------------------------------------------|
D|------------------------------------------------------------------|
A|------------------------------------------------------------------|
E|-00-2-2-44-2-4---0x0x0-2-2-44-2-4-/11\---00-2-2-44-2-4-44-0-0-2-2-|

  Verse
G|---------------------------------------|
D|---------------------------------------|
A|-7777-6666----------7777-6666----------|
E|-----------77777777-----------44444444-|

G|------------------------------------------|
D|------------------------------------------|
A|-7777-6666----------7777-6666-------------|
E|-----------77777777-----------444444-/14\-|

G|------------------------------------------------------------------|
D|------------------------------------------------------------------|
A|------------------------------------------------------------------|
E|-00-2-2-44-2-4---0x0x0-2-2-44-2-4-/12\---00-2-2-44-2-4-44-0-0-2-2-|

  Chorus
G|---------------------------------------|
D|---------------------------------------|
A|-7777-6666----------7777-6666----------|
E|-----------77777777-----------44444444-|

G|------------------------------------------|
D|------------------------------------------|
A|-7777-6666----------7777-6666-------------|
E|-----------77777777-----------444444-/14\-|

  Postchorus
G|------------------------------------------------------------------|
D|------------------------------------------------------------------|
A|------------------------------------------------------------------|
E|-00-2-2-44-2-4---0x0x0-2-2-44-2-4-/12\---00-2-2-44-2-4-44-0-0-2-2-|


  Verse
G|---------------------------------------|
D|---------------------------------------|
A|-7777-6666----------7777-6666----------|
E|-----------77777777-----------44444444-|

G|------------------------------------------|
D|------------------------------------------|
A|-7777-6666----------7777-6666-------------|
E|-----------77777777-----------444444-/14\-|
[ Tab from: http://www.guitartabs.cc/tabs/m/murderdolls/dawn_of_the_dead_btab_ver_4.html ]
G|------------------------------------------------------------------|
D|------------------------------------------------------------------|
A|------------------------------------------------------------------|
E|-00-2-2-44-2-4---0x0x0-2-2-44-2-4-/12\---00-2-2-44-2-4-44-0-0-2-2-|


  Chorus
G|---------------------------------------|
D|---------------------------------------|
A|-7777-6666----------7777-6666----------|
E|-----------77777777-----------44444444-|

G|---------------------------------------|
D|---------------------------------------|
A|-7777-6666----------7777-6666----------|
E|-----------77777777-----------44444444-|

G|---------------------------------------|
D|---------------------------------------|
A|-7777-6666----------7777-6666----------|
E|-----------7974---------------444444h7-|

G|---------------------------------------|
D|---------------------------------------|
A|-7777-6666----------7777-6666----------|
E|-----------7974---------------44444444-|


  Solo
G|---------------------------------------|
D|---------------------------------------|
A|-7777-6666----------7777-6666----------|
E|-----------77777777-----------44444444-|

G|------------------------------------------|
D|------------------------------------------|
A|-7777-6666----------7777-6666-------------|
E|-----------77777777-----------444444-/14\-|

  Prechorus
G|------------------------------------------------------------------|
D|------------------------------------------------------------------|
A|------------------------------------------------------------------|
E|-00-2-2-44-2-4---0x0x0-2-2-44-2-4-/12\---00-2-2-44-2-4-44-0-0-2-2-|


DRUM/VOCAL SOLO


G|-------|
D|-------|
A|-------|
E|-12\\\-|


  Chorus
G|---------------------------------------|
D|---------------------------------------|
A|-7777-6666----------7777-6666----------|
E|-----------77777777-----------44444444-|

G|---------------------------------------|
D|---------------------------------------|
A|-7777-6666----------7777-6666----------|
E|-----------77777777-----------44444444-|

G|---------------------------------------|
D|---------------------------------------|
A|-7777-6666----------7777-6666----------|
E|-----------7974---------------444444h7-|

G|-----------------------------------------|
D|-----------------------------------------|
A|-7777-6666----------7777-6666------------|
E|-----------7974---------------444444/14\-|

  Ending
G|--------------------------------------------------------------------------|
D|--------------------------------------------------------------------------|
A|--------------------------------------------------------------------------|
E|-00-2-2-44-2-4---0x0x0-2-2-44-2-4-/11\---00-2-2-44-2-4---0x0x0-2-2-44-2-4-|