Murderdolls - Dawn Of The Dead Chords & Tabs

 

Dawn Of The Dead Chords & Tabs

Murderdolls Chords & Tabs

Version: 3 Type: Bass Tab

Dawn Of The Dead Bass Tab

   
BASS
MURDERDOLLS
DAWN OF THE DEAD
ALBUM-BEYOND THE VALLEY

TABBED BY BMILNE
EADG

RIFF\CHORUS
G-------------------------------------------|
D-------------------------------------------|
A-------------------------------------------|
E-12-12-11-11-7-7-7-7--12-12-11-11-4-4-4-4--|
[ Tab from: http://www.guitartabs.cc/tabs/m/murderdolls/dawn_of_the_dead_btab_ver_3.html ]
MAIN RIFF
G--------------------------------|
D--------------------------------|
A--------------------------------|
E-0-2-2-4-4-2-4--0-2-2-4-4-2-4---|

RIFF
G-----------------|
D-----------------|
A-7-7-7-7-9-9-9-9-|
E-----------------|

RIFF-PLAY SECOND CHORUS
G-------------------------------------------|
D-------------------------------------------|
A-------------------------------------------|
E-12-12-11-11-7-9-7--12-12-11-11-4-4-4-4----|

THATS IT.