Murderdolls - Dawn Of The Dawn Chords & Tabs

 

Dawn Of The Dawn Chords & Tabs

Murderdolls Chords & Tabs

Version: 1 Type: Tab 0 ratings
1 star 2 stars 3 stars 4 stars 5 stars
comments

Dawn Of The Dawn Tab

   
     Murderdolls
			           Dawn of the Dead








INTRO 
00:00-00:30  Mostly Organs Playing Horror

00:30-00:44  Guitar Plays Main Riff
E------------------------------------------------------------------------------------ 
B----------------FADE-IN-SLOWLY-STARTING-AT-00:30------------------------------------
G----------------BEGIN-TO-SLOWLY-FADE-OUT-AT-00:42-----------------------------------
D------------------------------------------------------------------------------------
A-12-12-12-12-11-11-11-11-7-7-7-7-7-7-7-7-12-12-12-12-11-11-11-11-7-7-7-7-7-7-7-7----
E-12-12-12-12-11-11-11-11-7-7-7-7-7-7-7-7-12-12-12-12-11-11-11-11-7-7-7-7-7-7-7-7----


00:42-00:47  Bass Guitar Plays Main Riff Alone
G------------------------------------------------------------------------------------
D------------------------------------------------------------------------------------
A------------------------------------------------------------------------------------
E-12-12-12-12-11-11-11-11-7-7-7-7-7-7-7-7-12-12-12-12-11-11-11-11-4-4-4-4-4-4-4-4----

00:47-00:53  Guitar Comes In 
E------------------------------------------------------------------------------------
B------------------------------------------------------------------------------------
G------------------------------------------------------------------------------------
D-14-14-14-14-13-13-13-13-9-9-9-9-9-9-9-9-14-14-14-14-13-13-13-13-6-6-6-6-6-6-6-6----
A-xx-xx-xx-xx-xx-xx-xx-xx-x-x-x-x-x-x-x-x-xx-xx-xx-xx-xx-xx-xx-xx-x-x-x-x-x-x-x-x----
E-12-12-12-12-11-11-11-11-7-7-7-7-7-7-7-7-12-12-12-12-11-11-11-11-4-4-4-4-4-4-4-4----



[ Tab from: http://www.guitartabs.cc/tabs/m/murderdolls/dawn_of_the_dawn_tab.html ]
2ND Intro
00:53-01:01  Chorus and Intro Riff
E------------------------------------------------------------------------------------
B------------------------------------------------------------------------------------
G------------------------------------------------------------------------------------
D-2-2-4-4--6-6-4-6--2-2-2-2-2-2-4-4--6-6-4-6--2-2-2-2-2-2-4-4--6-6-4-6--2------------
A-2-2-4-4--6-6-4-6--2-2-2-2-2-2-4-4--6-6-4-6--2-2-2-2-2-2-4-4--6-6-4-6--2------------
E-0-0-2-2--4-4-2-4--0-0-0-0-0-0-2-2--4-4-2-4--0-0-0-0-0-0-2-2--4-4-2-4--0------------
                    .PALM.MUTE.               .PALM.MUTE.




1ST VERSE
01:04-01:15
E------------------------------------------------------------------------------------
B------------------------------------------------------------------------------------
G------------------------------------------------------------------------------------
D-14-14-14-14-13-13-13-13-9-9-9-9-9-9-9-9-14-14-14-14-13-13-13-13-6-6-6-6-6-6-6-6-14-
A-14-14-14-14-13-13-13-13-9-9-9-9-9-9-9-9-14-14-14-14-13-13-13-13-6-6-6-6-6-6-6-6-14-
E-12-12-12-12-11-11-11-11-7-7-7-7-7-7-7-7-12-12-12-12-11-11-11-11-4-4-4-4-4-4-4-4-12-
  .................................PALM.....MUTE.....................................




E------------------------------------------------------------------------------------
B------------------------------------------------------------------------------------
G------------------------------------------------------------------------------------
D-14-14-14-13-13-13-13-9-9-9-9-9-9-9-9-14-14-14-14-13-13-13-13-6-6-6-6-6-6-6-6-------
A-14-14-14-13-13-13-13-9-9-9-9-9-9-9-9-14-14-14-14-13-13-13-13-6-6-6-6-6-6-6-6-------
E-12-12-12-11-11-11-11-7-7-7-7-7-7-7-7-12-12-12-12-11-11-11-11-4-4-4-4-4-4-4-4-------
  ..................................PALM.....MUTE.............................

Comments