Murderdolls - Crash Crash Chords & Tabs

 

Crash Crash Chords & Tabs

Murderdolls Chords & Tabs

Version: 1 Type: Tab 0 ratings
1 star 2 stars 3 stars 4 stars 5 stars
comments

Crash Crash Tab

this is my tab 4 crash crash.
It should be pretty accurate.

Intro/Verse

e---------------------------------------------------------
b---------------------------------------------------------
g---------------------------------------------------------
d---2---5---2---5------8---7---7-7-7------repeat----------
a---2---5---2---5------8---7---7-7-7-------x 4------------
E---0---3---0---3------6---5---5-5-5----------------------


Bit before chorus
[ Tab from: http://www.guitartabs.cc/tabs/m/murderdolls/crash_crash_tab.html ]
e---------------------------------------------------------
b---------------------------------------------------------
g---------------------------------------------------------
d---9-9-9-9-12-12-12-12-14-14-14-14-14-14-----------------
a---7-7-7-7-10-10-10-10-12-12-12-12-12-12-----------------
E---------------------------------------------------------

Chorus

e--------------------------------------------------------
b--------------------------------------------------------
g--------------------------------------------------------
d--2-2--5--6--5--7---7-7-7-------------repeat------------
a--2-2--5--6--5--7---7-7-7--------------x 4--------------
E--0-0--3--4--3--5---5-5-5-------------------------------

I don't know the solo

enjoy!
Comments