Murder City Devils - I Want A Lot Now Chords & Tabs

 

I Want A Lot Now Chords & Tabs

Murder City Devils Chords & Tabs

Version: 1 Type: Bass Tab 0 ratings
1 star 2 stars 3 stars 4 stars 5 stars
comments

I Want A Lot Now Bass Tab

   
  i want a lot now - murder city devils
-------------------------------------------------------------------------------

Tabbed By : jherick orr
e-mail: collapseofeden@yahoo.com

Tuning: e

the whole bass line has an odd rhythm so listen closely and you'll get the hang of it.
other than that this song is very simple.

intro (x4)
G|--------------------------------------------------------------------------|
D|--------------------------------------------------------------------------|
A|-222-22222-55-222-22222-00------------------------------------------------|
E|--------------------------------------------------------------------------|
[ Tab from: http://www.guitartabs.cc/tabs/m/murder_city_devils/i_want_a_lot_now_btab.html ]
chorus (x2)
G|--------------------------------------------------------------------------|
D|--------------------------------------------------------------------------|
A|-------------000-00-00000-3222-22-22222-3222-22222------------------------|
E|-333-33-33333-------------------------------------------------------------|

verse (x8) .... this is also played as the bass solo for the third verse 
		when the guitars fade out
G|--------------------------------------------------------------------------|
D|--------------------------------------------------------------------------|
A|-3222-22-22222------------------------------------------------------------|
E|--------------------------------------------------------------------------|


intro
chorus
verse
chorus
verse
chorus
bass solo (verse)
chorus(x2)
Comments