Munly - My Darling Sambo Chords & Tabs

 

My Darling Sambo Chords & Tabs

Munly Chords & Tabs

Version: 1 Type: Tab 0 ratings
1 star 2 stars 3 stars 4 stars 5 stars
comments

My Darling Sambo Tab

MY DARLING SAMBO, by Munly.
Tabbed by jake Strange.
E-mail: jakestrange@chaosmagic.com
Try playing along w/ the song as you go, 'cause
this tab is terrible.

Guitar1:
e|----------------------------------------------------------||
B|--------------x-------------x----------------------x------||
G|--1--x-1-1--1-x--1---1--1-1-x---(0)------(0)-------x------||
D|--3--x-3-3--3-x--3---3--3-3-x----3--3-3---3--3-3---x---3--||
A|--3--x-3-3--3-x--3---3--3-3-x----3--3-3---3--3-3---x---3--||
E|-----x-1----1--------1--------------1----------1----------||
 ||guitar2:                                                 ||
e|------------8-----------------------8---------------------||
B|------------9-----------------------9---------------------||
G|-----------10----(10)--(10)--(10)--10-----(10)--(10)------||
D|-----------10----------------------10---------------------||
A|------------8-----------------------8---------------------||
E|----------------------------------------------------------||
I seriously doubt this is very accurate, but it's the best i can do.
[ Tab from: http://www.guitartabs.cc/tabs/m/munly/my_darling_sambo_tab.html ]
Guitar2 also plays:
e|------||------||------||------| |------||------||--------||
B|------||------||------||------| |------||------||--------||
G|--13--||--10--||--15--||--10--| |--13--||--10--||--15----||
D|------||------||------||------| |------||------||--------||
A|--11--||---8--||--13--||---8--| |--11--||---8--||--13----||
E|------||------||------||------| |------||------||--------||

Then there's the part where he sings:
"Sambo, Sambo, Sambo, Saaamboo-o..."
Play these 2 chords:
e|----------------||
B|---4------------||
G|---6------1-----||
D|---6------3-----||
A|---4------3-----||
E|--(4)----(1)----||

Guitar2, outro:
e|--9--8-------------------------------||--9--8------------------------||
B|--------9----------------------------||--------9---------------------||
G|-----------10--\5--/10--10--8h10--8--||-----------10-----------------||
D|-------------------------------------||--------------10--10-10-------||
A|-------------------------------------||------------------------8-8---||
E|-------------------------------------||------------------------------||
Comments