Mundy - 10 000 Miles Away Chords & Tabs

 

10 000 Miles Away Chords & Tabs

Mundy Chords & Tabs

Version: 1 Type: Tab 0 ratings
1 star 2 stars 3 stars 4 stars 5 stars
comments

10 000 Miles Away Tab

   
10,000 Miles Away - Mundy

 Capo-2.

Intro/Verse/Chorus:

e-----0--------------------------0-0-0-0-0---
B--1--1----1---------------------1-1-0-0-1---
G-----2-----------0----0---------2-2-2-2-2---
D-----2----0--0h2----3----2--0---2-2-2-2-2---
A--0-----2-3---------------------------------
E--------------------------------------------

Interlude:
[ Tab from: http://www.guitartabs.cc/tabs/m/mundy/10_000_miles_away_tab.html ]
  C                                 D
Talk with strangers over coke and rum
        C                             D   Fmaj7   D   Fmaj7
Well should we go by train or go by thumb...................



Chords Used:
   
   C  D   Fmaj7
e--0--2----0--------
B--1--3----1--------
G--0--2----2--------
D--2--0----3--------
A--3--X---(3)-------
E--X--X----X--------
Comments