Mull Historical Society - This Is The Hebrides Chords & Tabs

 

This Is The Hebrides Chords & Tabs

Mull Historical Society Chords & Tabs

Version: 1 Type: Tab 0 ratings
1 star 2 stars 3 stars 4 stars 5 stars
comments

This Is The Hebrides Tab

This is The Hebrides
Mull Historical Society 
--This Is Hope--



verse
e|------------------------------
b|------------------------------
g|------------------------------
d|--7---5----6---5---4---3------
a|--7---5----7---5---5---3------
E|--5---3----4---3---2---1------

e|------------------------------
b|------------------------------
g|------------------------------
d|--7---5----6---5---4---3------
a|--7---5----7---5---5---3------
E|--5---3----4---3---2---1------

e|------------------------------
b|------------------------------
g|------------------------------
d|--7---5----6---5---4---3------
a|--7---5----7---5---5---3------
E|--5---3----4---3---2---1------

Chorus
[ Tab from: http://www.guitartabs.cc/tabs/m/mull_historical_society/this_is_the_hebrides_tab.html ]
e|------------------------------
b|--5---5---5---5---------------
g|--5---5---5---5---------------
d|--5---5---5---5---------------
a|--3---2---1---0---------------
E|------------------------------

e|------------------------------
b|--5---5---5---5---------------
g|--5---5---5---5---------------
d|--5---5---5---5---------------
a|--3---2---1---0---------------
E|------------------------------

e|------------------------------
b|--5---5---5---5---------------
g|--5---5---5---5---------------
d|--5---5---5---5---------------
a|--3---2---1---0---------------
E|------------------------------

e|------------------------------
b|--5---5---5---5---------------
g|--5---5---5---5---------------
d|--5---5---5---5---------------
a|--3---2---1---0---------------
E|------------------------------


 
 
 

Comments