Mull Historical Society - Peculiar Chords & Tabs

 

Peculiar Chords & Tabs

Mull Historical Society Chords & Tabs

Version: 1 Type: Tab 0 ratings
1 star 2 stars 3 stars 4 stars 5 stars
comments

Peculiar Tab

Title - Peculiar
Artist - Mull Historical Society
Tabbed by - Wilson

intro

E|---------------------------------
b|---------------------------------
g|---------------------------------
d|------------4--------------------
a|--------0-2------2-0------------
E|---0-2---------------------------

 

"There was a crazy guy??

E|---------------------------------
b|---------------------------------
g|---------------------------------
d|---2--2--------------------------
a|---0--0--------------------------   x many
E|---------------------------------

 

"or I could pull right into??
[ Tab from: http://www.guitartabs.cc/tabs/m/mull_historical_society/peculiar_tab.html ]
E|--------------------------------
b|--------------------------------
g|--2--2--6--5--7--7--------------
d|--2--2--6--5--7--7---2-2-2-2-2--
a|--0--0--4--4--5--5---2-2-2-2-2--
E|---------------------0-0-0-0-0--

 

"She became his crazy wife..?

E|---0--0--------------------------
b|---2--2--------------------------
g|---2--2--------------------------
d|---2--2--------------------------
a|---0--0--------------------------   x many
E|---------------------------------

 

Repeat all bits when needed

 

Chorus

E|--5---9----10----------------------
b|--5---9----10----------------------
g|--6---9----11----------------------
d|--7---11---12----------------------
a|--7---11---12----------------------
E|--5---9----10----------------------
Comments