Mule - Obion Chords & Tabs

 

Obion Chords & Tabs

Mule Chords & Tabs

Version: 1 Type: Tab 0 ratings
1 star 2 stars 3 stars 4 stars 5 stars
comments

Obion Tab

   
-------------------------------------------------------------------------------
                             OBION - MULE
-------------------------------------------------------------------------------
Tabbed by:C-BONE
E-mail:cwarner3000@gmail.com

Tuning:EADGBe

From the album 'If I Dont Six'
http://www.youtube.com/watch?v=9yzmQSQ_l2E
http://www.touchandgorecords.com/bands/band.php?id=54


Here are the main parts, he improvises throughout the song
using lots of oblique bends,hammer ons and pull offs


Intro
          F#5           E5  B5
e|----------------------------------------------------------------------|
B|--------------------------7-------------------------------------------|
G|--------------------------6b8r6-4-------------------------------------|
D|--------4--6b8r6-4---4-2----------\4-2-4---4-2-4----------------------|
A|-x-x--x-4----------6---2---------------4---4-2-4-x--------------------|
E|-x-x--x-2--------------0---------------2---2-0-2-x-0------------------|

Verse
  F#5  E5  B5          F#5
e|--------------------------------------------------------------------------|
B|---------7----------------------------------------------------------------|
G|---------6b8r6-4----------------------------------------------------------|
D|--4--2-----------\4-2-4--4---4-6b7r6-4-4----------------------------------|
A|--4--2----------------4----6-----------4----------------------------------|
E|--2--0----------------2----------------2----------------------------------|
"Girl comes from Mexico, riding on a pregnant horse"

[ Tab from: http://www.guitartabs.cc/tabs/m/mule/obion_tab.html ]
Bridge 1:54
  F#5     E5 G#5     E5
e|---------------------------------------------------------------------|
B|---------------------------------------------------------------------|
G|---------------------------------------------------------------------|
D|-4-4-4-4-2-6-6-6-6-2-repeatx4----------------------------------------|
A|-4-4-4-4-2-6-6-6-6-2-------------------------------------------------|
E|-2-2-2-2-0-4-4-4-4-0-------------------------------------------------|

    B                            G#m       E
e|---------------------------------------------------------------------|
B|--7-------7--------------------4-------------------------------------|
G|--6b8r6-4-6-4-------4-6-4--4---3b4r3-1---1---------------------------|
D|-------------x-x-/6--------------------1-2-----2-2-------------------|
A|-----------------------------------------2-2h4-2-2-------------------|
E|-----------------------------------------0---------------------------|

    B                         G#m       E
e|-------------------7-------------------------------------------------|
B|--7----------------7--------4----------------------------------------|
G|--6b8r6-4-6-4-6-6b8-8r6-4---3b4r3-1----1-----------------------------|
D|------------------------------------1--2-----------------------------|
A|---------------------------------------2-----------------------------|
E|---------------------------------------0-----------------------------|

Then back to the Verse F#5 E5 B5 F#5 to end the song.






************************************

| /   slide up
| \   slide down
| h   hammer-on
| p   pull-off
| ~   vibrato
| +   harmonic
| x   Mute note
| B   Bend
| pb  Pre-bend
| br  Bend release
| pbr Pre-bend release
| brb Bend release bend

************************************
Comments