Mudvayne - World So Cold Chords & Tabs

 

World So Cold Chords & Tabs

Mudvayne Chords & Tabs

Version: 3 Type: Tab 0 ratings
1 star 2 stars 3 stars 4 stars 5 stars
comments

World So Cold Tab

Artist: Mudvayne
Album: The End of All Things to Come
Song: World So Cold
Tuning: CGCFAD (Drop C Tuning)
Tabbed By: Keanan Brackenridge (Xtinction)

First of all, let me just say that this is the REAL TUNING for this song, even
though all songs in L.D 50 did use Drop B. Maybe cus of their new look, they
decided a new tuning for this album (just a guess..). Anyways this is one of
their best songs and I'm pretty sure this is 95-100% correct. Song order is at
that bottom in case you're not sure what order to play.



-#1
D-----------------------------------------------------------------
A-----------------------------------------------------------------
F-----------------------------------------------------------------
C-10-10-10-10-10-10-10-10-10-10-10-10-10--9-9-9-9-9---------------  
G--7--7--7--7--7--7--7--7--7--7--7--7--7--7-7-7-7-7--------------- 
C-----------------------------------------------------------------

D-----------------------------------------------------------------
A-----------------------------------------------------------------
F-----------------------------------------------------------------
C-7-7-7-7-7-7-7-7-7-7-7-7-9-9-10-7--------------------------------
G-7-7-7-7-7-7-7-7-7-7-7-7-7-7--7-7--------------------------------
C-----------------------------------------------------------------

D-----------------------------------------------------------------
A-----------------------------------------------------------------
F-----------------------------------------------------------------
C-10-10-10-10-10-10-10-10-10-10-10-10-10-10-----------------------
G--8--8--8--8--8--8--8--8--8--8--8--8--8--8-----------------------
C-----------------------------------------------------------------

D-----------------------------------------------------------------
A-----------------------------------------------------------------
F-----------------------------------------------------------------
C-10-10-10-10-10-10-10-10-10-10-10-10-7-7-7-7---------------------
G--7--7--7--7--7--7--7--7--7--7--7--7-7-7-7-7---------------------
C-----------------------------------------------------------------
-#2
D-----------------------------------------------------------------
A-----------------------------------------------------------------
F-------------5-5-5-5-4-4-4---------------------------------------
C-3-3-3-3-3-3-x-x-x-x-x-x-x---------------------------------------
G-3-3-3-3-3-3-3-3-3-3-2-2-2---------------------------------------
C-3-3-3-3-3-3-----------------------------------------------------

D-----------------------------------------------------------------
A-----------------------------------------------------------------
F---------------7-----------------12------------------------------
C-0---2-3-2-0---x---0---2-3-2-0----x------------------------------
G-0---2-3-2-0---5---0---2-3-2-0---10------------------------------
C-0---2-3-2-0-------0---2-3-2-0-----------------------------------
-#3
D--------------------------------------------------------------------------
A--------------------------------------------------------------------------
F--------------------------------------------------------------------------
C-10-10-10-10-10-10-10-10-10-10-10-10-10--9-9-9-9-9------------------------
G--7--7--7--7--7--7--7--7--7--7--7--7--7--7-7-7-7-7------------------------ 
C--------------------------------------------------------------------------
[ Tab from: http://www.guitartabs.cc/tabs/m/mudvayne/world_so_cold_tab_ver_3.html ]
D--------------------------------------------------------------------------
A--------------------------------------------------------------------------
F--------------------------------------------------------------------------
C-7-7-7-7-7-7-7-7-7-7-7-7-9-9-10-7-10--------------------------------------
G-7-7-7-7-7-7-7-7-7-7-7-7-7-7--7-7--8--------------------------------------
C--------------------------------------------------------------------------
#4
D--------------------------------------------------------------------------
A--------------------------------------------------------------------------
F--------------------------------------------------------------------------
C-0-0-0--0--0-0-0-3-3-3-3-/10-10-10--10--10-10-10-10-10-10-10--------------
G-0-0-0--0--0-0-0-3-3-3-3-/10-10-10--10--10-10-10-10-10-10-10--------------
C-0-0-0--0--0-0-0-3-3-3-3-/10-10-10--10--10-10-10-10-10-10-10--------------

D--------------------------------------------------------------------------
A--------------------------------------------------------------------------
F--------------------------------------------------------------------------
C-8-8-8--12-12-12--7-8-8-8-8-8-8-8--7-7-7--7-8-8-7-------------------------
G-8-8-8--10-10-10--7-8-8-8-8-8-8-8--7-7-7--7-8-8-7-------------------------
C-8-8-8--10-10-10--7-8-8-8-8-8-8-8--7-7-7--7-8-8-7-------------------------
-#5(Solo)
Listen carfeully and you will hear it..
D--------------------------------------------------------------------------
A--------------------------------------------------------------------------
F-7---7-9-10-/-9-7-5---------9-9-9-9-12-12-12------------------------------
C-x---x-x--x-/-x-x-x---------x-x-x-x--x--x--x------------------------------
G-5---5-7--8-/-7-5-3---------7-7-7-7-10-10-10------------------------------
C--------------------------------------------------------------------------

D--------------------------------------------------------------------------
A--------------------------------------------------------------------------
F-15----17----12----15----14-----------------------------------------------
C--x-----x-----x-----x-----x-----------------------------------------------
G-13----15----10----13----12-----------------------------------------------
C--------------------------------------------------------------------------
-#6
(Not exact strumming pattern, slight variations til #7..)
D--------------------------------------------------------------------------
A--------------------------------------------------------------------------
F--------------------------------------------------------------------------
C-3-3-3-3-3-3-7-7-7-7-7-7--------------------------------------------------
G-3-3-3-3-3-3-7-7-7-7-7-7--------------------------------------------------
C-3-3-3-3-3-3-7-7-7-7-7-7--------------------------------------------------

D--------------------------------------------------------------------------
A--------------------------------------------------------------------------
F--------------------------------------------------------------------------
C-3-3-3-3-3-3-x-x-x-x-7-7-7-7-7-7-0-0-0-0-0--------------------------------
G-3-3-3-3-3-3-x-x-x-x-7-7-7-7-7-7-0-0-0-0-0--------------------------------
C-3-3-3-3-3-3-x-x-x-x-7-7-7-7-7-7-0-0-0-0-0--------------------------------
-#7
After shouting his last big "circumstances of the world so colllllldddddd!!!"
D--------------------------------------------------------------------------
A--------------------------------------------------------------------------
F--------------------------------------------------------------------------
C-3-3-3----3--3-3-3-3-3-3-3--7-7-7----7--7-7-7-7-7-7-7---------------------
G-3-3-3----3--3-3-3-3-3-3-3--7-7-7----7--7-7-7-7-7-7-7---------------------
C-3-3-3----3--3-3-3-3-3-3-3--7-7-7----7--7-7-7-7-7-7-7---------------------


D--------------------------------------------------------------------------
A--------------------------------------------------------------------------
F--------------------------------------------------------------------------
C-3-3-3----3--3-3-3-3-3-3-3--7-7-7----7--7-0--0----------------------------
G-3-3-3----3--3-3-3-3-3-3-3--7-7-7----7--7-0--0----------------------------
C-3-3-3----3--3-3-3-3-3-3-3--7-7-7----7--7-0--0----------------------------

Song Order
#1	x4
#2	x2
#3	x1
#1	x2
#2	x4
#4	x4
#5	x1
#6	x4
#7	x4
Comments