Mudvayne - Version Of A Truth Chords & Tabs

 

Version Of A Truth Chords & Tabs

Mudvayne Chords & Tabs

Version: 1 Type: Tab 0 ratings
1 star 2 stars 3 stars 4 stars 5 stars
comments

Version Of A Truth Tab

   
Band- Mudvayne
Song- Version Of A Truth

Tuning: Drop D, 1 Step Down  
(C,G,C,F,A,D)

VERSE:
|--------------------------------------------------------------|
|--------------------------------------------------------------|
|-3-3-3-------3-3-3-------3-3----3-3-3-------3-3-3-------8\7---|
|-0-0-0-------0-0-0-------0-0----0-0-0-------0-0-0-------X-X---|
|-------0-0-0-------0-0-0-----6--------0-0-0-------0-0-0-6\5-6-|
|-------0-0-0-------0-0-0-----6--------0-0-0-------0-0-0-----6-|
pm        . .         . .                . .         . .

VERSE FILL:
|-------------------------------------------------------------------|
|-------------------------------------------------------------------|
|----------3-3-3-------3-3-3-------3-3----3-3-3-----3-3-3-----8\7---|
|----------0-0-0-------0-0-0-------0-0----0-0-0-----0-0-0-----X-X---|
|-000-000--------0-0-0-------0-0-0-----6--------0---------0---6\5-6-|
|-000-000--------0-0-0-------0-0-0-----6--------0---------0-------6-|
pm... ...          . .         . .

BRIDGE:
|------------------------------------------------------------|
|------------------------------------------------------------|
|------------------------------------------------------------|
|----------------------------------------------------3-3-3-3-|
|-0h1--1-111-0h1--1-111-0h1-1-1-0h1--1-111-0h1-5p3-3---------|
|-0h1--1-111-0h1--1-111-0h1-1-1-0h1--1-111-0h1---------------|
pm     . ...      . ...     . .      . ...

CHORUS:
|--------------------------------------------------------|
|--------------------------------------------------------|
|--------10-10-10-10-10-10\--5-5-5--10-10-10-10/12-12-12-|
|-0-0-0---X--X--X--X--X--X---3-3-3---X--X--X--X--X--X--X-|
|-0-0-0---8--8--8--8--8--8\--3-3-3---8--8--8--8/10-10-10-|
|-0-0-0----------------------3-3-3-----------------------|
[ Tab from: http://www.guitartabs.cc/tabs/m/mudvayne/version_of_a_truth_tab.html ]
|-------------------------------------------------------------|
|-------------------------------------------------------------|
|--------10-10-10-10-10-10\----------------------/10-10-10-10-|
|-0-0-0---X--X--X--X--X--X-----------------------/8---8--8--8-|
|-0-0-0---8--8--8--8--8--8\--333-2-3--0-333-2-3--/8---8--8--8-|
|-0-0-0----------------------333-2-3--0-333-2-3--/8---8--8--8-|

CHORUS FILL:
|---------------------------|
|---------------------------|
|---------------------------|
|---------------------------|
|-333-2-3--0-333-2-3--0-000-|
|-333-2-3--0-333-2-3--0-000-|

INTERLUDE:
|--------------------------------------|
|--------------------------------------|
|--------------------------------------|
|--------------------------5----5----5-|
|---7-7-7/8-\3-3-3/5-55----------------|
|-0---------------------3----33---33---|

INTERLUDE 2:
|-------------------------------|
|-------------------------------|
|-------------------------------|
|-------------------------------|
|-0h1--1-111-0h1--1-111-0h1-1-1-|
|-0h1--1-111-0h1--1-111-0h1-1-1-|
pm     . ...      . ...     . .

INTERLUDE 2 FILL:
|---------------------------|
|---------------------------|
|---------------------------|
|---------------------------|
|-0h1--1-111-0h1--1-111-0h1-|
|-0h1--1-111-0h1--1-111-0h1-|
pm     . ...      . ...

INTERLUDE 3:
|---------------------------------------|
|---------------------------------------|
|---9-9-9-9/10--5--5-5/7-7----------8-8-|
|---X-X-X-X-X---X--X-X-X-X--5-5-5-5-8-8-|
|-0-7-7-7-7/8---3--3-3/5-5--3-3-3-3-6-6-|
|-0-------------------------3-3-3-3-----|

INTERLUDE 3 FILL:
|-------------------------------------------|
|-------------------------------------------|
|---9-9-9-9/10--5--5-5/7-7------------------|
|---X-X-X-X-X---X--X-X-X-X--5-5-5-5---------|
|-0-7-7-7-7/8---3--3-3/5-5--3-3-3-3-3h5-3h5-|
|-0-------------------------3-3-3-3-3h5-3h5-|
Comments