Mudvayne - Under My Skin Chords & Tabs

 

Under My Skin Chords & Tabs

Mudvayne Chords & Tabs

Version: 1 Type: Bass Tab 0 ratings
1 star 2 stars 3 stars 4 stars 5 stars
comments

Under My Skin Bass Tab

Artist: Mudvayne
Song: Under My Skin
Tabbed By: MuddHunerlg50\Chüd_ld50 - e-mail = chud_ld50@yahoo.com
Contact: To correct my tab tell me on AIM my s\n is MrChuddd
Comments: Please Rate my Tab. This Tab isnt 100% correct its just a starter.
Please if uyou figure out thoughs Parts that im missing Send it to me so i
cant Put it up and Give you the Credit For thoughs Parts.
Tab is in the Right Order. Oh Yea Im Working On Prod.

Intro
|---------------|
|---------------|
|---------------|
|-0--0--0--0--0-|
|-0--0--0--0--0-|
   Go with the Drum Bet

Chorus
|-----------------------|
|-----------------------|
|-----------------------|
|-7h8-0-0-3h4-0-0-5h6-0-|X8
|-----------------------|

Verse
|-------9---12---7---10------|
|---7---------------------14-|
|-3---4---3----2---4----3----|
|----------------------------|X8
|----------------------------|
   Not Very Sure But Sounds Good\Play real Fast``` 

Pre-Chorus
|------------------------------------------------------------------|
|------------------------------------------------------------------|
|------------------------------------------------------------------|
|-0h4-0h4---0h4-0h4---0h4-0h4-0h4-0h4---0h4-0h4---0h4-0h4-0h4-0h4--|
|------------------------------------------------------------------|

|-----------------------0---0---0-0-----0/9-|
|-------------------------------------------|
|-------------------------------------------|
|-0h4-0h4---0h4-0h4-0-0---x---x-----x-------|
|-------------------------------------------|

|------------------------------------------------15-------------------|
|---------------------------------------------------------------------|
|---------------------------------------------------------------------|
|-0h4-0h4---0h4-0h4---0h4-0h4-0h4-0h4---0h4-0h4------0h4-0h4-0h4-0h4--|
|---------------------------------------------------------------------|

|-----------------------0---0---0-0-----9\0-|
|-------------------------------------------|
|-------------------------------------------|
|-0h4-0h4---0h4-0h4-0-0---x---x-----x-------|
|-------------------------------------------|

Chorus
|-----------------------|
|-----------------------|
|-----------------------|
|-7h8-0-0-3h4-0-0-5h6-0-|X8
|-----------------------|

Verse
|-------10---12---7---10------|
|---9---------------------14--|
|-3---5----4----2---4----3----|
|-----------------------------|X6
|-----------------------------|

Pre-Chorus
|------------------------------------------------------------------|
|------------------------------------------------------------------|
|------------------------------------------------------------------|
|-0h4-0h4---0h4-0h4---0h4-0h4-0h4-0h4---0h4-0h4---0h4-0h4-0h4-0h4--|
|------------------------------------------------------------------|

|-----------------------0---0---0-0-----9\0-|
|-------------------------------------------|
|-------------------------------------------|
|-0h4-0h4---0h4-0h4-0-0---x---x-----x-------|
|-------------------------------------------|

|------------------------------------------------15-------------------|
|---------------------------------------------------------------------|
|---------------------------------------------------------------------|
|-0h4-0h4---0h4-0h4---0h4-0h4-0h4-0h4---0h4-0h4------0h4-0h4-0h4-0h4--|
|---------------------------------------------------------------------|

|-----------------------0---0---0-0-----9\0-|
|-------------------------------------------|
|-------------------------------------------|
|-0h4-0h4---0h4-0h4-0-0---x---x-----x-------|
|-------------------------------------------|

Chorus
|-----------------------|
|-----------------------|
|-----------------------|
|-7h8-0-0-3h4-0-0-5h6-0-|X8
|-----------------------|
[ Tab from: http://www.guitartabs.cc/tabs/m/mudvayne/under_my_skin_btab.html ]
|--------------------------------------|
|--------------------------------------|
|--------------------------------------|
|--------0h3h4-0h4h5-0h6h7-0h3h4-0h4h5-|
|-12\0---------------------------------|

|-----------------------------------|
|-----------------------------------|
|-----------------------------------|
|--0h3h4-0h4h5-0h6h7-0h3h4-0h4h5----|
|-----------------------------------|

|-----0--------0--0-------0---------0---0-----------------15\0---0-----0--0-0-0-0-|
|-------------------------------------------------0-------------------------------|
|----------------------x------x---------------------------------------------------|
|--x-------x---------x----------------------xx------------------------x-----------|
|-x-x---x----xx-xx-x--x-x---x---x-x---x---x----xx---x-x-x-------x---x----x-x-x-x--|

|---------|
|-0-0-0-0-|
|-0-0-0-0-|
|-0-0-0-0-|
|-0-0-0-0-|
 "S" on my Chest...

|-------0---0------0------0----0-------0---------0-----0/15-----0---0---0--0--0-0--|
|-------------------------------------------0-0------------------------------------|
|----------------------------------------------------------------------------------|
|----x--------x-x-----x-x--------xx---x-----x-------x------x--------x-----x--------|
|-x-x-x---x-----x-x-x---x---x---x--xx-x--x--------x---x------x-x-x----x-x---x--x-x-|

|-0-|
|-0-|
|-0-|
|-0-|
|-0-|
    Fist Full...(Let Ring)

|-----------------------------------|
|-----------------------------------|
|-----------------------------------|
|--0h3h4-0h4h5-0h6h7-0h3h4-0h4h5----|
|-----------------------------------|

|-----12----------|
|-----------------|
|-----------------|
|--------0--0--0--|
|-0-0----0--0--0--|

Chorus
|-----------------------|
|-----------------------|
|-----------------------|
|-7h8-0-0-3h4-0-0-5h6-0-|X8
|-----------------------|

|----------------------------------------------|
|----------------------------------------------|
|----------------------------------------------|
|----------------------------------------------|
|-0-1-3-2-0/9~--0-1-3-2-0/12~--0-1-3-2-0/14~---|
Cant Figure out that weird sounding part right after^
 
|----------------------------------------------|
|----------------------------------------------|
|----------------------------------------------|
|----------------------------------------------|
|-0-1-3-2-0/9~--0-1-3-2-0/12~--0-1-3-2-0/14~---|
Also Cant Figure out that weird sounding part right after^

|---------5----------0--0-|
|-----------------------0-|
|-----------------------0-|
|-2-3-2-0---2-3-2-0-----0-|
|-----------------------0-|
                          ^Dont let ring - Swipe with all Fingers

|------------------------------------------------------------------|
|------------------------------------------------------------------|
|------------------------------------------------------------------|
|-0h4-0h4---0h4-0h4---0h4-0h4-0h4-0h4---0h4-0h4---0h4-0h4-0h4-0h4--|
|------------------------------------------------------------------|

|-----------------------0---0---0-0-----9\0-|
|-------------------------------------------|
|-------------------------------------------|
|-0h4-0h4---0h4-0h4-0-0---x---x-----x-------|
|-------------------------------------------|

|------------------------------------------------15-------------------|
|---------------------------------------------------------------------|
|---------------------------------------------------------------------|
|-0h4-0h4---0h4-0h4---0h4-0h4-0h4-0h4---0h4-0h4------0h4-0h4-0h4-0h4--|
|---------------------------------------------------------------------|

|-----------------------0---0---0-0-----9\0-|
|-------------------------------------------|
|-------------------------------------------|
|-0h4-0h4---0h4-0h4-0-0---x---x-----x-------|
|-------------------------------------------|

Play until Ending of the Song

There... This Tab "ISNT" 100% correct but its a start. 
Its a pain in the ass to tab it though.
PLEASE RATE MY TAB!!
Comments