Mudvayne - Trapped In The Wake Of A Dream Chords & Tabs

 

Trapped In The Wake Of A Dream Chords & Tabs

Mudvayne Chords & Tabs

Version: 1 Type: Tab 0 ratings
1 star 2 stars 3 stars 4 stars 5 stars
comments

Trapped In The Wake Of A Dream Tab

   
Song: "Trapped In the Wake of A Dream"
Artist: Mudvayne
Album: The End of All Things To Come
Transcribed By: Sean Coleman (fatal_embrace)

Tuning: Drop D, 1 Step Down (C,G,C,F,A,D)

INTRO & OUTRO: (palm mute)
|-----------------------------------------------------------|
|-----------------------------------------------------------|
|-----------------------------------------------------------|
|-7-7-7--7-7--7-7--7-7-7-7--7-7-7-7-7--7-7--7-7--7-7-7--7-7-|
|-5-5-5--5-5--5-5--5-5-5-5--5-5-5-5-5--5-5--5-5--5-5-5--5-5-|
|-0-0-0--0-0--0-0--0-0-0-0--0-0-0-0-0--0-0--0-0--0-0-0--0-0-|

INTRO FILL: (palm mute)
|-----------------------------------------------------------|
|-----------------------------------------------------------|
|-----------------------------------------------------------|
|-7-7-7--7-7--7-7--7-7-7-7--7-7-7-7-7--7-7--7-7--7-7-7------|
|-5-5-5--5-5--5-5--5-5-5-5--5-5-5-5-5--5-5--5-5--5-5-5--X-X-|
|-0-0-0--0-0--0-0--0-0-0-0--0-0-0-0-0--0-0--0-0--0-0-0--X-X-|

INTRO 2: (palm mute)
|------------------------------------------|
|------------------------------------------|
|------------------------------------------|
|------------------------------------------|
|-0-0-0--0-0-0--0-0-0--0-0-0--0-0-0--0-0-0-|
|-0-0-0--0-0-0--0-0-0--0-0-0--0-0-0--0-0-0-|

VERSE:
|---------|
|---------|
|----7----|
|------6--|
|---------|
|-0-------|

VERSE B: (palm mute)
|------------------------------------|
|------------------------------------|
|-7-7-7--7-7--7-7--7-7-7-7---7-7-7-7-|
|------------------------------------|
|------------------------------------|
|------------------------------------|

CHORUS:
|------------------------------------------------------------------|
|-4-------------------------4-4-4-4--------------4-4-4-------4-4---|
|-3-------------------------3-3-3-3--------------3-3-3-------3-3---|
|-1-------------------------1-1-1-1--------------1-1-1-------1-1---|
|---0-0--0-0--0-0--0-0-0-0----------0--0-0--0-0---------0-0------0-|
|---0-0--0-0--0-0--0-0-0-0----------0--0-0--0-0---------0-0------0-|

|------------------------------------------|
|------------------------------------------|
|------------------------------------------|
|------------------------------------------|
|-0-0-0--0-0-0--0-0-0--0-0-0--0-0-0--0-0-0-|
|-0-0-0--0-0-0--0-0-0--0-0-0--0-0-0--0-0-0-|
[ Tab from: http://www.guitartabs.cc/tabs/m/mudvayne/trapped_in_the_wake_of_a_dream_tab.html ]
INTERLUDE: (there’s no pause between notes, written this way to make
easier to read) (palm mute w/ gradual release after played
many times)
|------------------------------------------------|
|------------------------------------------------|
|-8-7-5-7-5--8-7-5-7-5--8-7-5-7-5--8-7-5-7-5-5-5-|
|------------------------------------------------|
|------------------------------------------------|
|------------------------------------------------|

INTERLUDE 2:
|---------------------------------------------|
|---------------------------------------------|
|---------------------------------------------|
|---------------------------------------------|
|-6\5-5\3-3/5-5/6-3\2-2/3-3\2-2p0-0h2-2/3-3/5-|
|-6\5-5\3-3/5-5/6-3\2-2/3-3\2-2p0-0h2-2/3-3/5-|

INTERLUDE 3: (palm mute)
|-----------------------------------------|
|-----------------------------------------|
|-----------------------------------------|
|-----------------------------------------|
|-6-5-5-3-5-5-6-6-3-3-2-2-3-3-2-2-0-0-2-2-|
|-6-5-5-3-5-5-6-6-3-3-2-2-3-3-2-2-0-0-2-2-|

INTERLUDE 4:
|---------------------------------------------|
|---------------------------------------------|
|-13------13----13----13---12----13-13-13-----|
|-12------12----12----12---12----12-12-12-----|
|-12-0-0--12-0--12-0--12-0-12-0--12-12-12-0-0-|
|-12-0-0--12-0--12-0--12-0-12-0--12-12-12-0-0-|

INTERLUDE 5: (all twelves and zeros)
|--------------------------------------------------------------------|
|--------------------------------------------------------------------|
|--------------------------------------------------------------------|
|--------------------------------------------------------------------|
|-1200-120-120-120120-12121200-120-120-12120-120-1200-120-120-120120-|
|-1200-120-120-120120-12121200-120-120-12120-120-1200-120-120-120120-|

|----------------------------------------------------------------------|
|----------------------------------------------------------------------|
|----------------------------------------------------------------------|
|----------------------------------------------------------------------|
|-12121200-120-120-000-00-1200-120-120-120120-12121200-120-120-1200-120|
|-12121200-120-120-000-00-1200-120-120-120120-12121200-120-120-1200-120|

INTERLUDE 6: (palm mute)
|-----------------------------------|
|-----------------------------------|
|-----------------------------------|
|-----------------------------------|
|-000-00-00-0000-00000-00-00-000-00-|
|-000-00-00-0000-00000-00-00-000-00-|
Comments