Mudvayne - The End Of All Things To Come Chords & Tabs

 

The End Of All Things To Come Chords & Tabs

Mudvayne Chords & Tabs

Version: 3 Type: Tab 0 ratings
1 star 2 stars 3 stars 4 stars 5 stars
comments

The End Of All Things To Come Tab

   
1. SILENCED
Intro/Verse
|---------------------------|
|---------------------------|
|---------------------------| x8
|-0h3-8-3p0--0h3-8-3p0--0-0-|
|-0h3-8-3p0--0h3-8-3p0--0-0-|
|-0h3-8-3p0--0h3-8-3p0--0-0-|

|-------------------|
|-------------------|
|-------------------| x1
|-0-0-0-0---3-3-3-3-|
|-0-0-0-0---3-3-3-3-|
|-0-0-0-0---3-3-3-3-|
PM- - - -   - - - -

Chorus
|-----------------------------------|
|-----------------------------------|
|------------0---0-------------0--0-| x4
|-0-0-0-0--4---4----3-3-3-3--5----4-|
|-0-0-0-0-----------3-3-3-3---------|
|-0-0-0-0-----------3-3-3-3---------|
PM- - - -           - - - -

|---------------------------|
|---------------------------|
|---------------------------| x4
|-0h3-8-3p0--0h3-8-3p0--0-0-|
|-0h3-8-3p0--0h3-8-3p0--0-0-|
|-0h3-8-3p0--0h3-8-3p0--0-0-|

Chorus
|---------------------------------------------|
|---------------------------------------------|
|----------------------0---0-------------0--0-| x1
|-0-0-0-0---3-3-3-3--4---4----3-3-3-3--5----4-|
|-0-0-0-0---3-3-3-3-----------3-3-3-3---------|
|-0-0-0-0---3-3-3-3-----------3-3-3-3---------|
PM- - - -   - - - -           - - - -

Chorus
|-----------------------------------|
|-----------------------------------|
|------------0---0-------------0--0-| x3
|-0-0-0-0--4---4----3-3-3-3--5----4-|
|-0-0-0-0-----------3-3-3-3---------|
|-0-0-0-0-----------3-3-3-3---------|
PM- - - -           - - - -

Verse
|---------------------------|
|---------------------------|
|---------------------------| x8
|-0h3-8-3p0--0h3-8-3p0--0-0-|
|-0h3-8-3p0--0h3-8-3p0--0-0-|
|-0h3-8-3p0--0h3-8-3p0--0-0-|

Bridge
|---------------------------|
|---------6---------6-------|
|---------------------------| x3
|---------------------------|
|-6p5-6p5---6p5-6p5---6p5h6-|
|---------------------------|

|---------------------------------------------------------------------|
|---------------------------------------------------------------------|
|---------------------------------------------------------------------| x2
|---------------------------------------------------------------------|
|---------------------------------------------------------------------|
|-1-0-1-0-3-2-2-1--1-0-1-0-3-2-2-3--1-0-1-0-3-2-2-1---1-0-1-0-3-2-2-3-|
PM- - - - - - - -  - - - - - - - -  - - - - - - - -   - - - - - - - -

|-----------------------------|
|-----------------------------|
|-----------------------------| x1
|-1p0-1p0-3p2-1p0-1p0-3p2-1p0-|
|-1p0-1p0-3p2-1p0-1p0-3p2-1p0-|
|-1p0-1p0-3p2-1p0-1p0-3p2-1p0-|

|---------------------------------------------------------------|
|---------------------------------------------------------------|
|---------------------------------------------------------------| x1
|-----------------------------------------------------------0-0-|
|-----------------------------------------------------------0-0-|
|-1-0-1-0-3-2-2-1---1-0-1-0-3-2-2-1---1-0-1-0-3-2-2-1--2-2--0-0-|
PM- - - - - - - -   - - - - - - - -   - - - - - - - -  - -

|-----------------------------|
|-----------------------------|
|-----------------------------| x4
|-1p0-1p0-3p2-1p0-1p0-3p2-1p0-|
|-1p0-1p0-3p2-1p0-1p0-3p2-1p0-|
|-1p0-1p0-3p2-1p0-1p0-3p2-1p0-|

|-------------------------------|
|-------------------------------|
|-------------------------------| x4
|-1p0-1p0-3p2-1p0-1p0-3p2-1p0---|
|-1p0-1p0-3p2-1p0-1p0-3p2-1p0-5-|
|-1p0-1p0-3p2-1p0-1p0-3p2-1p0---|

|-------------------|
|-------------------|
|-------------------| x1
|-0-0-0-0---3-3-3-3-|
|-0-0-0-0---3-3-3-3-|
|-0-0-0-0---3-3-3-3-|
PM- - - -   - - - -

Chorus
|-----------------------------------|
|-----------------------------------|
|------------0---0-------------0--0-| x4
|-0-0-0-0--4---4----3-3-3-3--5----4-|
|-0-0-0-0-----------3-3-3-3---------|
|-0-0-0-0-----------3-3-3-3---------|
PM- - - -           - - - -

Verse/Outro
|---------------------------|
|---------------------------|
|---------------------------| x8
|-0h3-8-3p0--0h3-8-3p0--0-0-|
|-0h3-8-3p0--0h3-8-3p0--0-0-|
|-0h3-8-3p0--0h3-8-3p0--0-0-|

2.TRAPPED IN THE WAKE OF A DREAM
intro...
D-----------------------------------|
A-----------------------------------|
F-----------------------------------|
C-n11-11-11-1111-11111-11-11-111-11-|
G-n11-11-11-1111-11111-11-11-111-11-|
C-n11-11-11-1111-11111-11-11-111-11-|
PM... .. .. .... ..... .. .. ... ..

pre-verse...=n+pm
D----------------------------------------------------------|
A----------------------------------------------------------|
F----------------------------------------------------------|
C-n00--n00--n00--n00--n00-n00--n00--n00--n00--n00--n00-n00-|
G-n00--n00--n00--n00--n00-n00--n00--n00--n00--n00--n00-n00-|
C-n00--n00--n00--n00--n00-n00--n00--n00--n00--n00--n00-n00-|
pm...  ...  ...  ...  ... ...  ...  ...  ...  ...  ... ...

D-----------------------|
A-----7-----------------|
F-------6---------------|
C-----------------------|
G-----------------------|
C-0---------------------|

D--------------------------------------------------|
A--------------------------------------------------|
F-777-77-77-7777-7777777---777-77-77-7777-7777777--|
C--------------------------------------------------|
G--------------------------------------------------|
C--------------------------------------------------|
pm... .. .. .... .......   ... .. .. .... .......

D-----------------------|
A-----7-----------------|
F-------6---------------|
C-----------------------|
G-----------------------|
C-0---------------------|

D-----------------------------------------------------------------------|
A-----------------------------------------------------------------------|
F----------------33333-------333----------------------------------------|
C-100-10-10-1010-xxxxx-10-10-xxx-00--000--000--000--000--000--000--000--|
G-100-10-10-1010-11111-10-10-111-00--000--000--000--000--000--000--000--|
C-100-10-10-1010-11111-10-10-111-00--000--000--000--000--000--000--000--|
PM... .. .. ....    .. .. ..     ..  ...  ...  ...  ...  ...  ...  ...

lude...(trippy)
D----------------------------------|
A----------------------------------|
F-87575-87585-8-757-58757-555------|
C----------------------------------|
G----------------------------------|
C----------------------------------|
pm.................................

im not gonna put the slides in but hit each note then slide to the next
D------------------------------------------------------|
A------------------------------------------------------|
F------------------------------------------------------|
C-6-5-3-5-6-3-2-1-2-3-2-1p0--6-5-3-5-6-3-2-1-2-3-2-1p0-|
G-6-5-3-5-6-3-2-1-2-3-2-1p0--6-5-3-5-6-3-2-1-2-3-2-1p0-|
C-6-5-3-5-6-3-2-1-2-3-2-1p0--6-5-3-5-6-3-2-1-2-3-2-1p0-|

D----------------------------------------------------------------------------|
A----------------------------------------------------------------------------|
F----------------------------------------------------------------------------|
C-66-55-33-55-66-33-22-11-22-33-22-11p00-66-55-44-55-44-33-22-44-33-22-11p00-|
G-66-55-33-55-66-33-22-11-22-33-22-11p00-66-55-44-55-44-33-22-44-33-22-11p00-|
C-66-55-33-55-66-33-22-11-22-33-22-11p00-66-55-44-55-44-33-22-44-33-22-11p00-|
pm..........................................................................

D----------------------------------------------------------------------|
A-33--3--3--3-3--333---3--3--333-----33--3--3--3-3--333---3--3--333----|
F-11--1--1--1-1--111---1--1--111-----11--1--1--1-1--111---1--1--111----|
C-Xx0-x0-x0-x0x0-xxx00-x0-x0-xxx-00--Xx0-x0-x0-x0x0-xxx00-x0-x0-xxx-00-|
G-110-10-10-1010-11100-10-10-111-00--110-10-10-1010-11100-10-10-111-00-|
C-110-10-10-1010-11100-10-10-111-00--110-10-10-1010-11100-10-10-111-00-|
pm...............................
^middle finger on f str. pnky. on the a str.^

D----------------------------------------------------------------------|
A----------------------------------------------------------------------|
F----------------------------------------------------------------------|
C-XXX-XX-XX-XXXX-XXXXX-XX-XX-XXX-XX--xxx-xx-xx-xxxx-xxxxx-xx-xx-xxx-xx-|
G-XXX-XX-XX-XXXX-XXXXX-XX-XX-XXX-XX--xxx-xx-xx-xxxx-xxxxx-xx-xx-xxx-xx-|
c-xxx-xx-xx-xxxx-xxxxx-xx-xx-xxx-xx--xxx-xx-xx-xxxx-xxxxx-xx-xx-xxx-xx-|

D----------------------------------------------------------------------|
A----------------------------------------------------------------------|
F----------------33333-------333---------------------------------------|
C-100-10-10-1010-xxxxx-10-10-xxx-00--000--000--000--000--000--000--000-|
G-100-10-10-1010-11111-10-10-111-00--000--000--000--000--000--000--000-|
C-100-10-10-1010-11111-10-10-111-00--000--000--000--000--000--000--000-|
PM... .. .. ....       .. ..     ..  ...  ...  ...  ...  ...  ...  ...

exit...
D-----------------------------------|
A-----------------------------------|
F-----------------------------------|
C-n11-11-11-1111-11111-11-11-111-11-|
G-n11-11-11-1111-11111-11-11-111-11-|
C-n11-11-11-1111-11111-11-11-111-11-|
PM... .. .. .... ..... .. .. ... ..

3. NOT FALLING
Intro:
d-----------------------------------------------------------------|
a-----------------------------------------------------------------|
f-5\4-4-4-4-4---4-4-4-4-4-4---4-4-5\4-4-4-4-4---4-4-4-4-4-4---4-4-|
c-x-x-x-x-x-x---x-x-x-x-x-x---x-x-x-x-x-x-x-x---x-x-x-x-x-x---x-x-|
g-3\2-2-2-2-2---2-2-2-2-2-2---2-2-3\2-2-2-2-2---2-2-2-2-2-2---2-2-|
c-----------------------------------------------------------------|

d-----------------------------------------------------------------|
a-----------------------------------------------------------------|
f-5\4-4-4-4-4---4-4-4-4-4-4---4-4-5\4-4-4-4-4----4---4------------|
c-x-x-x-x-x-x---x-x-x-x-x-x---x-x-x-x-x-x-x-x----x---x------------|
g-3\2-2-2-2-2---2-2-2-2-2-2---2-2-3\2-2-2-2-2----2---2----3---0-3-|
c---------------------------------------------------------3---0-3-|

x3
d-------------------------------------------------------|
a-------------------------------------------------------|
f-------------------------------------10101010-9-9-9-9--|
c--------------------------------------x-x-x-x-x-x-x-x--|
g-0-3-0----0-3-0-3-0----0-3-0-3-0-3-0--8-8-8-8-7-7-7-7--|
c-0-3-0----0-3-0-3-0----0-3-0-3-0-3-0-------------------|

d-----------------------|
a-----------------------|
f-----------------------|
c-----------------------|
g-0-3-0----0-3-0-3-0----|
c-0-3-0----0-3-0-3-0----|

Verse 1: (this sounds better this way)
d-----------------------------------------------------------------|
a-----------------------------------------------------------------|
f-10---10-1010-10--10101010--10-1010--9----9--9--9--9-9--9---9--9-|
c--0----0--0-0--0---0-0-0-0---0--0-0--0----0--0--0--0-0--0---0--0-|
g--8----8--8-8--8---8-8-8-8---8--8-8--7----7--7--7--7-7--7---7--7-|
c--0----0--0-0--0---0-0-0-0---0--0-0--0----0--0--0--0-0--0---0--0-|

d-------------------------------------------------------|
a-------------------------------------------------------|
f-7---7-7--7--7--7-7--7--7---7-7--12---12-12-12-12--10--|
c-0---0-0--0--0--0-0--0--0---0-0---0----0--0--0--0---0--|
g-5---5-5--5--5--5-5--5--5---5-5--10---10-10-10-10---8--|
c-0---0-0--0--0--0-0--0--0---0-0---0----0--0--0--0---0--|

Fig. 1
d-----------------------------------------------------------------|
a-----------------------------------------------------------------|
f-14---14-14-14--14-14-14-14\12--9---9-9--9--9--9-9-9--7--7-7-7-7-|
c--0----0--0--0---0--0--0--0--0--0---0-0--0--0--0-0-0--0--0-0-0-0-|
g-12---12-12-12--12-12-12-12\10--7---7-7--7--7--7-7-7--5--5-5-5-5-|
c--0----0--0--0---0--0--0--0--0--0---0-0--0--0--0-0-0--0--0-0-0-0-|

d-----------------------------------------------------------------|
a-----------------------------------------------------------------|
f-10---10-1010-10--10101010--10-1010--9----9--9--9--9-9--9---9--9-|
c--0----0--0-0--0---0-0-0-0---0--0-0--0----0--0--0--0-0--0---0--0-|
g--8----8--8-8--8---8-8-8-8---8--8-8--7----7--7--7--7-7--7---7--7-|
c--0----0--0-0--0---0-0-0-0---0--0-0--0----0--0--0--0-0--0---0--0-|

d-------------------------------------------------------|
a-------------------------------------------------------|
f-7---7-7--7--7--7-7--7--7---7-9--12---12-12-12-12--10--|
c-0---0-0--0--0--0-0--0--0---0-0---0----0--0--0--0---0--|
g-5---5-5--5--5--5-5--5--5---5-7--10---10-10-10-10---8--|
c-0---0-0--0--0--0-0--0--0---0-0---0----0--0--0--0---0--|

d-----------------------------------------------------------------|
a-----------------------------------------------------------------|
f-14---14-14-14--14-14-14-14\12--9---9-9--9--9--9-9-9--7--7-7-7-7-|
c--0----0--0--0---0--0--0--0--0--0---0-0--0--0--0-0-0--0--0-0-0-0-|
g-12---12-12-12--12-12-12-12\10--7---7-7--7--7--7-7-7--5--5-5-5-5-|
c--0----0--0--0---0--0--0--0--0--0---0-0--0--0--0-0-0--0--0-0-0-0-|

end Fig. 1

Chorus:
x3
d-------------------------------------------------------|
a-------------------------------------------------------|
f-------------------------------------10101010-9-9-9-9--|
c--------------------------------------x-x-x-x-x-x-x-x--|
g-0-3-0----0-3-0-3-0----0-3-0-3-0-3-0--8-8-8-8-7-7-7-7--|
c-0-3-0----0-3-0-3-0----0-3-0-3-0-3-0-------------------|

d-------------------------------------------------------|
a-------------------------------------------------------|
f-5-5-5----5-5-5-5----5-----5-5-5----5-5-5-5-1010-9-9-9-|
c-3-3-3----3-3-3-3----3-----3-3-3----3-3-3-3--x-x-x-x-x-|
g-3-3-3----3-3-3-3----3-----3-3-3----3-3-3-3--8-8-7-7-7-|
c-3-3-3----3-3-3-3----3-----3-3-3----3-3-3-3------------|

before 2nd V:

d-----------------------|
a-----------------------|
f-----------------------|
c-----------------------|
g-0-3-0----0-3-0-3-0----|
c-0-3-0----0-3-0-3-0----|

2nd Verse:

d-----------------------------------------------------------------|
a-----------------------------------------------------------------|
f-10--10-10-10-10--10------9--9-9-9-9--9------7--7-7-7-7--7-------|
c--0---0--0--0--0---0------0--0-0-0-0--0------0--0-0-0-0--0-------|
g--8---8--8--8--8---8------7--7-7-7-7--7------5--5-5-5-5--5-------|
c--0---0--0--0--0---0------0--0-0-0-0--0------0--0-0-0-0--0-------|

d-----------------------------------------------------------------|
a-----------------------------------------------------------------|
f-12--12-12-12-12-10------14---14-14-14---14-14-14-14--14--14-----|
c--0---0--0--0--0--0-------0----0--0--0----0--0--0--0---0---0---0-|
g--8---8--8--8--8--8------12---12-12-12---12-12-12-12--12--12---0-|
c--0---0--0--0--0--0-------0----0--0--0----0--0--0--0---0---0---0-|

d-----------------------------------------------------------------|
a-----------------------------------------------------------------|
f-10--10-10-10-10--10------9--9-9-9-9--9------7--7-7-7-7--7-------|
c--0---0--0--0--0---0------0--0-0-0-0--0------0--0-0-0-0--0-------|
g--8---8--8--8--8---8------7--7-7-7-7--7------5--5-5-5-5--5-------|
c--0---0--0--0--0---0------0--0-0-0-0--0------0--0-0-0-0--0-------|

d-----------------------------------------------------------------|
a-----------------------------------------------------------------|
f-12--12-12-12-12-10------14---14-14-14---14-14-14-14--14--14-----|
c--0---0--0--0--0--0-------0----0--0--0----0--0--0--0---0---0---0-|
g--8---8--8--8--8--8------12---12-12-12---12-12-12-12--12--12---0-|
c--0---0--0--0--0--0-------0----0--0--0----0--0--0--0---0---0---0-|

Fig. 1, then

d-----------------------------------------------------------------|
a-----------------------------------------------------------------|
f-10--10-10-10--10-10-10-10--10-10--9---9-9-9---9-9---9--9--9--9--|
c--0---0--0--0---0--0--0--0---0--0--0---0-0-0---0-0---0--0--0--0--|
g--8---8--8--8---8--8--8--8---8--8--7---7-7-7---7-7---7--7--7--7--|
c--0---0--0--0---0--0--0--0---0--0--0---0-0-0---0-0---0--0--0--0--|

d-------------------------------------------------------|
a-------------------------------------------------------|
f-7---7-7--7--7--7-7--7--7---7-7--12---12-12-12-12--10--|
c-0---0-0--0--0--0-0--0--0---0-0---0----0--0--0--0---0--|
g-5---5-5--5--5--5-5--5--5---5-5--10---10-10-10-10---8--|
c-0---0-0--0--0--0-0--0--0---0-0---0----0--0--0--0---0--|

d-----------------------------------------------------------------|
a-----------------------------------------------------------------|
f-14---14-14-14--14-14-14-14\12--9---9-9--9--9--9-9-9--7--7-7-7-7-|
c--0----0--0--0---0--0--0--0--0--0---0-0--0--0--0-0-0--0--0-0-0-0-|
g-12---12-12-12--12-12-12-12\10--7---7-7--7--7--7-7-7--5--5-5-5-5-|
c--0----0--0--0---0--0--0--0--0--0---0-0--0--0--0-0-0--0--0-0-0-0-|

d-------------------------------|
a-------------------------------|
f-7---------10-10-10-10-9-9-9-9-|
c-0----------0--0--0--0-0-0-0-0-|
g-5----------8--8--8--8-7-7-7-7-|
c-0----------0--0--0--0-0-0-0-0-|

Bridge: x3

d-----------------------------------------------------------------|
a-----------------------------------------------------------------|
f-5\4-4-4-4-4--4---4-4-4-4-4---4-4-4---4-4-4-4-4---4-4-4-4-4--4-4-|
c-x-x-x-x-x-x--x---x-x-x-x-x---x-x-x---x-x-x-x-x---x-x-x-x-x--x-x-|
g-3\2-2-2-2-2--2---2-2-2-2-2---2-2-2---2-2-2-2-2---2-2-2-2-2--2-2-|
c----------------------------------3---3-3-3-3-3---3-3-3-3-3--3-3-|

gtr. 1

pm
d-----------------------------------------------------------------|
a-----------------------------------------------------------------|
f-----------------------------------------------------------------|
c-----------------------------------------------------------------|
g-----------------------------------------------------------------|
c-3-2-0-2-0-0-3-2-0-2-0-0-3-2-0---3-2-0-2-0-0-3-2-0-2-0-0-3-2-0---|

gtr. 2 w/ wah

d-----------------------------------------------------------------|
a-15----------15----------15------15----------15----------15------|
f-13----------13----------13------13----------13----------13------|
c-12----------12----------12------12----------12----------12------|
g-----------------------------------------------------------------|
c-----------------------------------------------------------------|

then,

gtr. 1

pm
d----------------------------------|
a----------------------------------|
f----------------------------------|
c----------------------------------|
g----------------------------------|
c-3-2-0-2-0-0-3-2-0-2-0-0-3-2-0----|

gtr. 2 w/ wah

d----------------------------------|
a-15------15------15------15-------|
f-13------13------13------13-------|
c-12------12------12------12-------|
g----------------------------------|
c----------------------------------|

x2
d-----------------------------------------------------------------|
a-----------------------------------------------------------------|
f-5\4-4-4-4-4--4---4-4-4-4-4---4-4-4---4-4-4-4-4---4-4-4-4-4--4-4-|
c-x-x-x-x-x-x--x---x-x-x-x-x---x-x-x---x-x-x-x-x---x-x-x-x-x--x-x-|
g-3\2-2-2-2-2--2---2-2-2-2-2---2-2-2---2-2-2-2-2---2-2-2-2-2--2-2-|
c----------------------------------3---3-3-3-3-3---3-3-3-3-3--3-3-|

x2
d------------------------------------------------|
a------------------------------------------------|
f-17-17-17-17-17-17-17-17------------------------|
c-16-16-16-16-16-16-16-16------------------------|
g-15-15-15-15-15-15-15-15--0-0--6\----0-0--6\----|
c--------------------------0-0--6\----0-0--6\----|

d------------------------------------------------|
a------------------------------------------------|
f-17-17-17-17------------------------------------|
c-16-16-16-16------------------------------------|
g-15-15-15-15-----6\-------0-0--6\----0-0--6\----|
c-----------------6\-------0-0--6\----0-0--6\----|

x3
d------------------------------------------------|
a------------------------------------------------|
f-17-17-17-17-17-17-17-17------------------------|
c-16-16-16-16-16-16-16-16------------------------|
g-15-15-15-15-15-15-15-15--0-0--6\----0-0--6\----|
c--------------------------0-0--6\----0-0--6\----|

then

d-----------------------------------------------------------------|
a-----------------------------------------------------------------|
f-17-17-17-17-17-17-17-17-17-17-17----17-17-17-17-17--------------|
c-16-16-16-16-16-16-16-16-16-16-16----16-16-16-16-16--------------|
g-15-15-15-15-15-15-15-15-15-15-15----15-15-15-15-15--------------|
c-----------------------------------------------------------------|

End with Chorus

4. (PER)VERSION OF A TRUTH
VERSE:
|--------------------------------------------------------------|
|--------------------------------------------------------------|
|-3-3-3-------3-3-3-------3-3----3-3-3-------3-3-3-------8\7---|
|-0-0-0-------0-0-0-------0-0----0-0-0-------0-0-0-------X-X---|
|-------0-0-0-------0-0-0-----6--------0-0-0-------0-0-0-6\5-6-|
|-------0-0-0-------0-0-0-----6--------0-0-0-------0-0-0-----6-|
Pm        . .         . .                . .         . .


|-------------------------------------------------------------------|
|-------------------------------------------------------------------|
|----------3-3-3-------3-3-3-------3-3----3-3-3-----3-3-3-----8\7---|
|----------0-0-0-------0-0-0-------0-0----0-0-0-----0-0-0-----X-X---|
|-000-000--------0-0-0-------0-0-0-----6--------0---------0---6\5-6-|
|-000-000--------0-0-0-------0-0-0-----6--------0---------0-------6-|
Pm... ...          . .         . .

|------------------------------------------------------------|
|------------------------------------------------------------|
|------------------------------------------------------------|
|----------------------------------------------------3-3-3-3-|
|-0h1--1-111-0h1--1-111-0h1-1-1-0h1--1-111-0h1-5p3-3---------|
|-0h1--1-111-0h1--1-111-0h1-1-1-0h1--1-111-0h1---------------|
Pm     . ...      . ...     . .      . ...

CHORUS:
|--------------------------------------------------------|
|--------------------------------------------------------|
|--------10-10-10-10-10-10\--5-5-5--10-10-10-10/12-12-12-|
|-0-0-0---X--X--X--X--X--X---3-3-3---X--X--X--X--X--X--X-|
|-0-0-0---8--8--8--8--8--8\--3-3-3---8--8--8--8/10-10-10-|
|-0-0-0----------------------3-3-3-----------------------|

|-------------------------------------------------------------|
|-------------------------------------------------------------|
|--------10-10-10-10-10-10\----------------------/10-10-10-10-|
|-0-0-0---X--X--X--X--X--X-----------------------/8---8--8--8-|
|-0-0-0---8--8--8--8--8--8\--333-2-3--0-333-2-3--/8---8--8--8-|
|-0-0-0----------------------333-2-3--0-333-2-3--/8---8--8--8-|

|---------------------------|
|---------------------------|
|---------------------------|
|---------------------------|
|-333-2-3--0-333-2-3--0-000-|
|-333-2-3--0-333-2-3--0-000-|

INTERLUDE:
|--------------------------------------|
|--------------------------------------|
|--------------------------------------|
|--------------------------5----5----5-|
|---7-7-7/8-\3-3-3/5-55----------------|
|-0---------------------3----33---33---|

|-------------------------------|
|-------------------------------|
|-------------------------------|
|-------------------------------|
|-0h1--1-111-0h1--1-111-0h1-1-1-|
|-0h1--1-111-0h1--1-111-0h1-1-1-|
Pm     . ...      . ...     . .

|---------------------------|
|---------------------------|
|---------------------------|
|---------------------------|
|-0h1--1-111-0h1--1-111-0h1-|
|-0h1--1-111-0h1--1-111-0h1-|
Pm     . ...      . ...

|---------------------------------------|
|---------------------------------------|
|---9-9-9-9/10--5--5-5/7-7----------8-8-|
|---X-X-X-X-X---X--X-X-X-X--5-5-5-5-8-8-|
|-0-7-7-7-7/8---3--3-3/5-5--3-3-3-3-6-6-|
|-0-------------------------3-3-3-3-----|

|-------------------------------------------|
|-------------------------------------------|
|---9-9-9-9/10--5--5-5/7-7------------------|
|---X-X-X-X-X---X--X-X-X-X--5-5-5-5---------|
|-0-7-7-7-7/8---3--3-3/5-5--3-3-3-3-3h5-3h5-|
|-0-------------------------3-3-3-3-3h5-3h5-|

5.MERCY, SEVERITY
Intro 00:00-00:07
-------------------------|
-------------------------|
-------------------------|
-000-000-000-000-000-000-|
-000-000-000-000-000-000-|
-000-000-000-000-000-000-|

Prechorus (fast action here)
--------------------|
--------------------|
--------------------|
--------------------|
-5-5-6-0-6--0-6-0-6-|
-5-5-6-0-6--0-6-0-6-|
 * * * * *  * * * *

Verse
-----------------------------|
-----------------------------|
-----------------------------|
-77777-55555-5h7-44444-33333-|
-----------------------------|
-----------------------------|

Chorus
---------------------------------------------|
---------------------------------------------|
-----77-----77-7-55-----------55----------99-|
-565-xx-565-xx-x-xx-556060606-xx-06060606-xx-|
-565-55-565-55-5-33-556060606-33-06060606-77-|
-565----565---------556060606----06060606----|
                    *********    ********

Bridge
----------------------------------|
----------------------------------|
----------------------------------|
-------33-------55-------77-10-10-|
-23232----23232----23232----------|
-23232----23232----23232----------|

Bridge part two ("won't you take me away?" 03:53
----------|
-------10-|
-10-7-----|
----------|
----------|
----------|

Song Order
Intro
Prechorus X8
Verse X4
Chorus X4
Verse X3
Prechorus X8
Chorus X4
Bridge A X3
Prechorus X8
Verse X2
Bridge B X4
Chorus X4
Intro

6. WORLD SO COLD
(Intro)
D------------------------------------------------------------------|
A------------------------------------------------------------------|
F------------------------------------------------------------------|
C-10101010101010-9-9-9-9-7---9-7-7-7--7-7--7-7--7-7-7-7-7-9-9-9-10-|
G--7-7-7-7-7-7-7-7-7-7-7-7---7-7-7-7--7-7--7-7--7-7-7-7-7-7-7-7--7-|
C--7-7-7-7-7-7-7-7-7-7-7-7---7-7-7-7--7-7--7-7--7-7-7-7-7-7-7-7--7-|
When pas-sion's lost
             and all the trust is gone
D----------------------------------------------------------------|
A----------------------------------------------------------------|
F----------------------------------------------------------------|
C-5-5-5-5-5-5-5-5-5-5-5-5-5-5-5---5-5-5-5-5-5-5-5-5-5-7-7-7-7-7--|
G-3-3-3-3-3-3-3-3-3-3-3-3-3-3-3-0-3-3-3-3-3-3-3-3-3-3-5-5-5-5 5--|
C-3-3-3-3-3-3-3-3-3-3-3-3-3-3-3-0-2-2-2-2-2-2-2-2-2-2-5-5-5-5-5--|
way too long,___}
       for way too long.____}

(Chorus) (Use heavy distortion)
D-----------------------------------------------------------------|
A-----------------------------------------------------------------|
F------------------5-5-5-5-4-4-4------------------5-5-5-5-4-4-4---|
C-----------------------------------------------------------------|
G-3-3---3-3---3-3--3-3-3-3-2-2-2----3-3--3-3--3-3-3-3-3-3-2-2-2---|
C-3-3---3-3---3-3-------------------3-3--3-3--3-3-----------------|
Fe-ver in-side the storm,_
       so, I'm turn-ing a-way

D--------------------------------------------------------------------|
A--------------------------------------------------------------------|
F------------------------7-7-7-7-----------------------12/--12-12-12-|
C--------------------------------------------------------------------|
G-0---02/3/2--0-----0---5-5-5-5--0--0-2 /3/2--0---0---10/--10-10-10-|
C-0---02/3/2--0-----0-6----------0--0-2 /3/2--0---0-6---------------|
A-way from the names,                                                           I'm
mend-ing the wounds of us

D-----------------------------------------------------------------|
A-----------------------------------------------------------------|
F------------------5-5-5-5-4-4-4------------------5-5-5-5-4-4-4---|
C-----------------------------------------------------------------|
G-3-3---3-3---3-3--3-3-3-3-2-2-2----3-3--3-3--3-3-3-3-3-3-2-2-2---|
C-3-3---3-3---3-3-------------------3-3--3-3--3-3-----------------|
Keep your thorns_
   cause I'm run        - ing away

D--------------------------------------------------------------------|
A--------------------------------------------------------------------|
F------------------------7-7-7-7-----------------------12/--12-12-12-|
C--------------------------------------------------------------------|
G-0---02/3/2--0-----0---5-5-5-5--0--0-2 /3/2--0---0---10/--10-10-10-|
C-0---02/3/2--0-----0-6----------0--0-2 /3/2--0---0-6---------------|
A-way from the games                                                            the
of a world so cold


(Back to melody)
D--------------------------------------------------------------------|
A--------------------------------------------------------------------|
F--------------------------------------------------------------------|
C1010101010101010101010-9-9-9-7---9-7-7-7-7-7-7-7-7-7-7-9-9-9-10--5--|
G-7-7-7-7-7-7-7-7-7-7-7-7-7-7-7---7-7-7-7-7-7-7-7-7-7-7-7-7-7-7-0-3--|
C-7-7-7-7-7-7-7-7-7-7-7-7-7-7-7---7-7-7-7-7-7-7-7-7-7-7-7-7-7-7-0-3--|

[ Tab from: http://www.guitartabs.cc/tabs/m/mudvayne/the_end_of_all_things_to_come_tab_ver_3.html ]
D----------------------------------------------------------------|
A----------------------------------------------------------------|
F------------------------12-12-12-12-----------------------------|
C----------------------------------------------------------------|
G-0-----02/3/2--0---0---10-10-10-10-----------------------------|
C-0-----02/3/2--0---0-6-----------------------------------------|
Well, I'm flying                                             A-way from the names, away from the games.

D-----------------------------------------------------------------|
A-----------------------------------------------------------------|
F-----------------------------------------------------------------|
C-------------------------------5-5-5--5---5-5-5-5---5-5-5--------|
G-0-0-0----0--0-0-0-0---3-3-3---3-3-3--3---3-3-3-3---3-3-3--------|
C-0-0-0----0--0-0-0-0---3-3-3-0-2-2-2--2---2-2-2-2---2-2-2--------|


D------------------------------------------------------------------|
A------------------------------------------------------------------|
F------------------------------------------------------------------|
C101010---12-12-12---7-7-7--101010--101010--10101010/9-7-7/9--5---|
G-7-7-7---10-10-10---5-5-5---8-8-8---8-8-8---8-8-8-----------------|
C-8-8-8---10-10-10---5-5-5---8-8-8---7-7-7---7-7-7--8/7-5-5/7--3---|

D------------------------------------------------------------------|
A------------------------------------------------------------------|
F----9-9/10-10/12--12----15---15-15--17---17-17---12-12-12---------|
C-5----------------------------------------------------------------|
G-3--7-7/8-8/10---10----13---13-13--15-- 15-15---10-10-10---------|
C-2----------------------------------------------------------------|

D--------------------------------------------------------------------|
A--------------------------------------------------------------------|
F-15----15-15---14---14-14--14---(-10--------------------------------|
C-------------------------------------16xs---------------------------|
G-13----13-13---12---12-12--12----(-8--------------------------------|
C--------------------------------------------------------------------|

D--------------------------------------------------------------------|
A--------------------------------------------------------------------|
F-5------/-14-14-14-14-14-----14-14-14-14-16-16-16-17-16-14----10----|
C-3-------------------------------------------------------------16xs-|
G-3-16xs-/-12-12-12-12-12-----12-12-12-12-14-14-14-15-14-12----8-----|
C-3------------------------------------------------------------------|


                                             P.M.-------------------|
D-------------------------------------------------------------------|
A-------------------------------------------------------------------|
F--------------------------------------5----------------------------|
C--------------------------------------3----------------------------|
G--/7-7-7-7-7--7-7-7-7-9-9-9-10-9-7----312x--5-3-2-3---------------|
C--/7-7-7-7-7--7-7-7-7-9-9-9-10-9-7----3------5-3-2-3---------------|

D--------------------------------------------------------------------|
A-------------------------------------------------------8------------|
F-/14------------------------------------------------5------5--------|
C------10xs------------------------(little solo)--7------------7-----|
G-/12---------/7-7-7-7-7-7-7-7-0-------------------------------------|
C-------------/7-7-7-7-7-7-7-7-0-------------------------------------|

D---------------------------------------------------------------------|
A----------------------------------------8---------------8------------|
F-5-5-5--5----5-5-5-5---5-5-5--------5-------5---------5---5-----5----|
C-3-3-3--3----3-3-3-3---3-3-3---7----------------7---7-------7--7--7--|
G-3-3-3--3----3-3-3-3---3-3-3-----------------------------------------|
C-3-3-3--3----3-3-3-3---3-3-3-----------------------------------------|

D----------------------------------------------------------------------|
A----------------------------------------------------------------------|
F----------------------------------------5-5-5----5-----5-5-5-5--5-----|
C10-10-10------10----10-10-9-9---9-7-7---3-3-3----3-----3-3-3-3--3-----|
G-7-7--7--------7-----7-7--7-7---7-7-7---3-3-3----3-----3-3-3-3--3-3x--|
C-7-7--7--------7-----7-7--7-7---7-7-7---3-3-3----3-----3-3-3-3--3-----|

D---------------------------------------------------------------------|
A---------------------------------------------------------------------|
F------------------7--------------------------------------------------|
C101010--101010-------------------------------------------------------|
G-7-7-7---7-7-70---5--------------------------------------------------|
C-7-7-7---7-7-70------------------------------------------------------|

7.THE PATIENT MENTAL
d----------------------------------|----------------------------------------|
a----------------------------------|----------------------------------------|
f---------10-10--------------------|---------10-10-------------5------------|
c----------x--x-6-5-0-5-6-0-3-3-0--|----------x--x-6-5-0-5-6-0-3------------|
g----------8--8-6-5-0-5-6-0-3-3-0--|----------8--8-6-5-0-5-6-0-3------------|
c-5-6-5-6-------6-5-0-5-6-0-3-3-0--|-5-6-5-6-------6-5-0-5-6-0-3------------|

d------------------------------|---------------------------------------------|
a------------------------------|---------------------------------------------|
f------------------------------|---------------------------------------------|
c------------------------------|---------------------------------------------|
g-----3-5-6-----5---6-----8-8-5|----3-5-6-----3---5--------------------------|
c-0-0-------0-0---0---0-0------|0-0-------0-0---0---0-0-0-0-0-3-/0-0-0-0-0-3-|
  pm.       pm.   pm  pm.          pm.       pm.   pm  pm.....  h

d---------------------------------------------------------------------|
a---------------------------------------------------------------------|
f---------------------------------------------------------------------|
c-8-8-8-8-8-8-------------10-10-10-10-5-5-5-5-5-5-----2-3-------------|
g-6-6-6-6-6-6-0-0-3-0-0-0--8--8--8--8-3-3-3-3-3-3-0-0-2-3-0-0-0-0-0-0-|
c-6-6-6-6-6-6-0-0-3-0-0-0--8--8--8--8-3-3-3-3-3-3-0-0-2-3-0-0-0-0-0-0-|
              pm.........                         pm.  s  pm.........

d-----------------------------------------------------------------|
a-----------------------------------------------------------------|
f-----------------------------------------------------------------|
c-----------------------------------------------------------------|
g-----------------------------------------------------------------|
C-6-3-6-3-6-3-3-6-3-3-6-3-6-3-8-6-6-6-6-3-6-3-6-3-6-3-3-6-3-3-6-3-|
   p   p   p     p     p   p   p       p   p   p   p     p     p

d-----------------------|
a-----------------------|
f-----------------------|
c-8---8-8-10-5----------|
g-6---6-6--8-3----------|
c-6---6-6--8-3----------|
          s

d------------------------------------------------------------------------|
a------------------------------------------------------------------------|
f------------------------------------------------------------------------|
c-----8------8------8------8------10------5------5------5------5------5--|
g---6------6------6------6------8-------3------3------3------3------3----|
c-6------6------6------6------8-------3------3------3------3------3------|

d------------------------------------------------------------------------|
a------------------------------------------------------------------------|
f-----10-----10-----10-----10-----12------7------7------7------7------7--|
c------8------8------8------8-----10------5------5------5------5------5--|
g---6------6------6------6------8-------3------3------3------3------3----|
c-6------6------6------6------8-------3------3------3------3------3------|

8. SKRYING
Verse:
|--------------------------------------------------------|
|--------------------------------------------------------|
|-12-10-12--12--13-12-10--10--15-15-15-17-17-17-13-13-13-|
|--x--x--x---x---x--x--x---x---x-x--x--x--x--x--x--x--x-|
|-10--8-10--10--11-10--8---8--13-13-13-15-15-15-11-11-11-|
|--------------------------------------------------------|

|-----------------------------------------------------------------|
|-----------------------------------------------------------------|
|-12-10-12--12--13-12-10--10--15-15-15-17-17-17-13-13-13-10-10-10-|
|--x--x--x---x---x--x--x---x---x-x--x--x-x--x--x--x--x--x--x--x-|
|-10--8-10--10--11-10--8---8--13-13-13-15-15-15-11-11-11-8--8--8-|
|-----------------------------------------------------------------|

Chorus:
|------------------------------------------------------|
|------------------------------------------------------|
|-999-999--999-999-999--999-999-999--999-999-999--/9-9-|
|-777-777--777-777-777--777-777-777--777-777-777\1/7-7-|
|-777-777--777-777-777--777-777-777--777-777-777\1/7-7-|
|-777-777--777-777-777--777-777-777--777-777-777\1/7-7-|

Interlude:
|--------------------------------------------------------------|
|--------------------------------------------------------------|
|--------------------------------------------------------------|
|------------------------------------------------------------3-|
|-5-3-5-3-5-6-5-3~-0-1------------5-5-3-5-6-5-3~-0-1-----------|
|----------------------0-1-1-0-1---------------------0-1-1-0---|

|--------------------------------|
|--------------------------------|
|------------------------9-8-8-8-|
|---7---7---7------7---7---------|    ----w/delay
|-6---6---6---6--6---6-----------|
|--------------------------------|

|-----------------------------------------------------------------|
|-----------------------------------------------------------------|
|-----------------------------------------------------------------|
|-8-8-8-8-8-8-8-8-8-8-8-8-8-8-8-8-7-7-7-7-7-7-7-7-7-7-7-7-7-7-7-7-|
|-6-6-6-6-6-6-6-6-6-6-6-6-6-6-6-6-5-5-5-5-5-5-5-5-5-5-5-5-5-5-5-5-|
|-----------------------------------------------------------------|

|----------------------------------------|
|----------------------------------------|
|----------------------------------------|
|----------------------------------------|
|-12-10-12-10-12-13-12-10--7-8-0-1-1-0-1-|
|-12-10-12-10-12-13-12-10--7-8-0-1-1-0-1-|
                               . . . . .

|--------------------------------------|
|--------------------------------------|
|--------------------------------------|
|--------------------------------------|
|-12-12-10-12-13-12-10--7-8-0-1-1-0-15-|
|-12-12-10-12-13-12-10--7-8-0-1-1-0-15-|
                            . . . . ..
Bridge:
|----------------------------------------------|
|----------------------------------------------|
|-3--------3-------------3--------3------------|
|----------------------------------------------|
|---1-0-1----1-0-1--0-0----1-0-1----1-0-1--0-3-|
|---1-0-1----1-0-1--0-0----1-0-1----1-0-1--0-3-|
                    . .                    .
Fill:
|-----|
|-----|
|-----|
|-----|
|-6-6-|
|-6-6-|

Outro:
|-------------------|
|-------------------|
|-13-12-10-10-10-10-|
|--x--x--x-x--x--x-|
|-11-10--8-8--8--8-|
|-------------------|

9. SOLVE ET COAGULA
Intro
|-----------------------------------------------------------------------|
|-----------------------------------------------------------------------|
|-13--13-13-13-13-13-13-13-13-13-13-\-10--10-10-10-10-10-\-9--9-9-9-9-9-| x4
|-12--12-12-12-12-12-12-12-12-12-12-\--9---9--9--9--9--9-\-8--8-8-8-8-8-|
|-----------------------------------------------------------------------|
|-----------------------------------------------------------------------|

|-------------------------------|
|-------------------------------|
|-------------------------------| x8
|-------------------------------|
|-------------------------------|
|-3-3-3-0--2-2-2-2-0--2-2-2-2-0-|

Verse
|------------------------------------------------------------|
|------------------------------------------------------------|
|----------5/7-----------5/7-7-----------5/7-----------8\7-7-| x2
|-2-1-0-0-------2-1-0-0---------2-1-0-0-------2-1-0-0--------|
|-2-1-0-0--3/5--2-1-0-0--3/5-5--2-1-0-0--3/5--2-1-0-0--6\5-5-|
|-2-1-0-0-------2-1-0-0---------2-1-0-0-------2-1-0-0--------|
PM- - - -       - - - -         - - - -       - - - -

Fill
|-----------------------------------|
|-----------------------------------|
|-----------------------------------| x1
|-0--0--0--0-0-0--0--0--0--0--0-0-0-|
|-0--0--0--0-0-0--0--0--0--0--0-0-0-|
|-0--0--0--0-0-0--0--0--0--0--0-0-0-|

Verse
|------------------------------------------------------------|
|------------------------------------------------------------|
|----------5/7-----------5/7-7-----------5/7-----------8\7-7-| x1
|-2-1-0-0-------2-1-0-0---------2-1-0-0-------2-1-0-0--------|
|-2-1-0-0--3/5--2-1-0-0--3/5-5--2-1-0-0--3/5--2-1-0-0--6\5-5-|
|-2-1-0-0-------2-1-0-0---------2-1-0-0-------2-1-0-0--------|
PM- - - -       - - - -         - - - -       - - - -

Chorus
|-------------------------------|
|-------------------------------|
|-------------------------------| x8
|-------------------------------|
|-------------------------------|
|-3-3-3-0--2-2-2-2-0--2-2-2-2-0-|

Verse
|------------------------------------------------------------|
|------------------------------------------------------------|
|----------5/7-----------5/7-7-----------5/7-----------8\7-7-| x2
|-2-1-0-0-------2-1-0-0---------2-1-0-0-------2-1-0-0--------|
|-2-1-0-0--3/5--2-1-0-0--3/5-5--2-1-0-0--3/5--2-1-0-0--6\5-5-|
|-2-1-0-0-------2-1-0-0---------2-1-0-0-------2-1-0-0--------|
PM- - - -       - - - -         - - - -       - - - -

Fill
|-----------------------------------|
|-----------------------------------|
|-----------------------------------| x1
|-0--0--0--0-0-0--0--0--0--0--0-0-0-|
|-0--0--0--0-0-0--0--0--0--0--0-0-0-|
|-0--0--0--0-0-0--0--0--0--0--0-0-0-|

Verse
|------------------------------------------------------------|
|------------------------------------------------------------|
|----------5/7-----------5/7-7-----------5/7-----------8\7-7-| x1
|-2-1-0-0-------2-1-0-0---------2-1-0-0-------2-1-0-0--------|
|-2-1-0-0--3/5--2-1-0-0--3/5-5--2-1-0-0--3/5--2-1-0-0--6\5-5-|
|-2-1-0-0-------2-1-0-0---------2-1-0-0-------2-1-0-0--------|
PM- - - -       - - - -         - - - -       - - - -

Chorus
|-------------------------------|
|-------------------------------|
|-------------------------------| x8
|-------------------------------|
|-------------------------------|
|-3-3-3-0--2-2-2-2-0--2-2-2-2-0-|

Bridge
|-----------------------------------------------------------------|
|-----------------------------------------------------------------|
|-----------------------------------------------------------------| x2
|-----------------------------------------------------------------|
|-5-----------5-----------5---------------5---------------5-------|
|---3p2p0h2h3---3p2p0h2h3---3p2p0-3-3-3-3---3-3-3-2-2-2-2---2-2-2-|


|-----------------------------------------------------------------------|
|-----------------------------------------------------------------------|
|-13--13-13-13-13-13-13-13-13-13-13-\-10--10-10-10-10-10-\-9--9-9-9-9-9-| x3
|-12--12-12-12-12-12-12-12-12-12-12-\--9---9--9--9--9--9-\-8--8-8-8-8-8-|
|-----------------------------------------------------------------------|
|-----------------------------------------------------------------------|

|---------------------------------------------------------|
|---------------------------------------------------------|
|---------------------------------5-5-5-5-5-5-4-4-4-4-4-4-| x1
|---------------------------------3-3-3-3-3-3-2-2-2-2-2-2-|
|-5-----------5-----------5-------3-3-3-3-3-3-2-2-2-2-2-2-|
|---3p2p0h2h3---3p2p0h2h3---3p2p0-3-3-3-3-3-3-2-2-2-2-2-2-|

|----------------------------------------------------------|
|----------------------------------------------------------|
|--------------------------------------------------------5-| x1
|----------------------------------0-0-0h3\2-0--0--0-0-0---|
|-5-----------5-----------5--------0-0-0h3\2-0--0--0-0-0-3-|
|---3p2p0h2h3---3p2p0h2h3---3p2p0--0-0-0h3\2-0--0--0-0-0---|
PM                                                   - -

|---------------------------------------------------------|
|---------------------------------------------------------|
|---------------------------------5-5-5-5-5-5-4-4-4-4-4-4-| x1
|---------------------------------3-3-3-3-3-3-2-2-2-2-2-2-|
|-5-----------5-----------5-------3-3-3-3-3-3-2-2-2-2-2-2-|
|---3p2p0h2h3---3p2p0h2h3---3p2p0-3-3-3-3-3-3-2-2-2-2-2-2-|

Gradually release PM
|---------------------------------|
|---------------------------------|
|---------------------------------| x4
|-3-3-3-0-0-0-2-2-2-0-0-0-2-2-3-3-|
|-3-3-3-0-0-0-2-2-2-0-0-0-2-2-3-3-|
|-3-3-3-0-0-0-2-2-2-0-0-0-2-2-3-3-|
PM- - - - - - - - - - - - - - - -

Outro
|-------------------------------|
|-------------------------------|
|-------------------------------| x8
|-------------------------------|
|-------------------------------|
|-3-3-3-0--2-2-2-2-0--2-2-2-2-0-|

10. SHADOW OF A MAN
Intro
|-----------------------------------|
|-----------------------------------|
|-8/7-7-7-7-------10-10-10-10-8/7---| x4
|-----------------------------------|
|-6/5-5-5-5-0-0-0--8--8--8--8-6/5-0-|
|-----------------------------------|


Verse
|-----------------------------------|
|-----------------------------------|
|-----------------------------------| x8
|-----------------------------------|
|-6-5-5-5-5-0-0-0-8-8-8-8-6-5-0-----|
|-----------------------------------|
PM----------------------------------|


|-------------------------------------|
|-------------------------------------|
|-------------------------------------| x2
|-3\2-0h1-1p0-3\2-0h1-1p0--3-2--2-2-2-|
|-3\2-0h1-1p0-3\2-0h1-1p0--3-2--2-2-2-|
|-3\2-0h1-1p0-3\2-0h1-1p0--3-2--2-2-2-|
PM                         - -  - - -

Verse
|-----------------------------------|
|-----------------------------------|
|-----------------------------------| x4
|-----------------------------------|
|-6-5-5-5-5-0-0-0-8-8-8-8-6-5-0-----|
|-----------------------------------|
PM----------------------------------|

|-------------------------------------|
|-------------------------------------|
|-------------------------------------| x2
|-3\2-0h1-1p0-3\2-0h1-1p0--3-2--2-2-2-|
|-3\2-0h1-1p0-3\2-0h1-1p0--3-2--2-2-2-|
|-3\2-0h1-1p0-3\2-0h1-1p0--3-2--2-2-2-|
PM                         - -  - - -

Chorus pt1 (play pt1 then pt2 x2)
|--------------------------------------------|
|--------------------------------------------|
|-7-7--------------------5-5-------------5-5-| x1
|-7-7--------------------5-5-------------5-5-|
|-5-5--------------------3-3-------------3-3-|
|-5-5-0-0-0--0--0-0-0-0--3-3-0-0-0--0--0-3-3-|

Chorus pt2
|------------------------------------------------|
|------------------------------------------------|
|-4-4--------------------7-7---------------------| x1
|-4-4--------------------7-7-------5p0-----7-----|
|-2-2--------------------5-5---------------------|
|-2-2-0-0-0--0--0-0-0-0--5-5-0-0-0-----0-0---0-0-|
PM                           - - -     - -   - -

Verse
|-----------------------------------|
|-----------------------------------|
|-----------------------------------| x8
|-----------------------------------|
|-6-5-5-5-5-0-0-0-8-8-8-8-6-5-0-----|
|-----------------------------------|
PM----------------------------------|

|-------------------------------------|
|-------------------------------------|
|-------------------------------------| x2
|-3\2-0h1-1p0-3\2-0h1-1p0--3-2--2-2-2-|
|-3\2-0h1-1p0-3\2-0h1-1p0--3-2--2-2-2-|
|-3\2-0h1-1p0-3\2-0h1-1p0--3-2--2-2-2-|
PM                         - -  - - -

Chorus pt1
|--------------------------------------------|
|--------------------------------------------|
|-7-7--------------------5-5-------------5-5-| x1
|-7-7--------------------5-5-------------5-5-|
|-5-5--------------------3-3-------------3-3-|
|-5-5-0-0-0--0--0-0-0-0--3-3-0-0-0--0--0-3-3-|

Chorus pt2
|------------------------------------------------|
|------------------------------------------------|
|-4-4--------------------7-7---------------------| x1
|-4-4--------------------7-7-------5p0-----7-----|
|-2-2--------------------5-5---------------------|
|-2-2-0-0-0--0--0-0-0-0--5-5-0-0-0-----0-0---0-0-|
PM                           - - -     - -   - -

Chorus pt3 - (play pt3 and pt4 x2)
|--------------------------------------------------|
|--------------------------------------------------|
|-7-7----------------------10-10-------------------| x1
|-7-7----------------------10-10-------------------|
|-5-5-----------------------8--8-------------------|
|-5-5-0-0-0--0--0--0-0-0-0--8--8-0-0-0--0--0-0-0-0-|

Chorus pt4
|--------------------------------------------------------|
|--------------------------------------------------------|
|-10--12-12--------------------15-15---------------------| x1
|-10--12-12--------------------15-15-------5p0-----7-----|
|--8--10-10--------------------13-13---------------------|
|--8--10-10-0-0-0--0--0-0-0-0--13-13-0-0-0-----0-0---0-0-|
PM                                   - - -     - -   - -

Bridge
|-------------------------------|
|-------------------------------|
|-------------------------------| x1
|----------------x--7/4-0-5/2-0-|
|-7---------7----x--7/4-0-5/2-0-|
|---0--0--0---0--x--7/4-0-5/2-0-|

|---------------------------------|
|---------------------------------|
|---------------------------------| x4
|------------------x--7/4-0-5/2-0-|
|-7---------7p5----x--7/4-0-5/2-0-|
|---0--0--0-----0--x--7/4-0-5/2-0-|

|---------------------------|
|---------------------------|
|---------------------------| x8
|---------------------------|
|-7p5---------7p5-----7p5---|
|-----0--0--0-----0-0-----0-|

Verse - Gradually release PM
|--------------------------------|  |--------------------------------------|
|--------------------------------|  |--------------------------------------|
|--------------------------------|x4|-8/7-7-7-7-------10-10-10-10-8/7------| x4
|--------------------------------|  |--------------------------------------|
|-6-5-5-5-5-0-0-0-8-8-8-8-6-5-0--|  |-6-5-5-5-5-0-0-0--8--8--8--8-6-5-0----|
|--------------------------------|  |--------------------------------------|
PM-------------------------------------------------------------------------|

Chorus (apply rests where needed)
|-------------------------------------------------------------------------|
|-------------------------------------------------------------------------|
|-7-7-------------5-5-------------4-4-------------7-7---------------------|
|-7-7-------------5-5-------------4-4-------------7-7-------5p0-----7-----|
|-5-5-------------3-3-------------2-2-------------5-5---------------------|
|-5-5-0-0-0-0-0-0-3-3-0-0-0-0-0-0-2-2-0-0-0-0-0-0-5-5-0-0-0-----0-0---0-0-|
PM                                                          _ _ _     - -   - -
|-------------------------------------|
|-------------------------------------|
|-7-7--------------10-10--------------| x1
|-7-7--------------10-10--------------|
|-5-5---------------8--8--------------|
|-5-5-0-0-0--0-0-0--8--8-0-0-0--0-0-0-|

|------------------------------------------------------|
|------------------------------------------------------|
|-10--12-12------------------15-15---------------------| x1
|-10--12-12------------------15-15-------5p0-----7-----|
|--8--10-10------------------13-13---------------------|
|--8--10-10-0-0-0--0--0-0-0--13-13-0-0-0-----0-0---0-0-|
PM                                 - - -     - -   - -

|---------------------------------------------------------------------|
|---------------------------------------------------------------------|
|-7-7-7-7-7-7--5-5-5-5-5-5/7-7--4-4-4-4-4-4--3-3-3-3-3-3--7-7-7-7-7-7-| x1
|-7-7-7-7-7-7--5-5-5-5-5-5/7-7--4-4-4-4-4-4--3-3-3-3-3-3--7-7-7-7-7-7-|
|-5-5-5-5-5-5--3-3-3-3-3-3/5-5--2-2-2-2-2-2--1-1-1-1-1-1--5-5-5-5-5-5-|
|-5-5-5-5-5-5--3-3-3-3-3-3/5-5--2-2-2-2-2-2--1-1-1-1-1-1--5-5-5-5-5-5-|

|---------------------------------------------------------|
|---------------------------------------------------------|
|-10-10-10-10-10-10--12-12-12-12-12-12--15-15-15-15-15-15-| x1
|-10-10-10-10-10-10--12-12-12-12-12-12--15-15-15-15-15-15-|
|--8--8--8--8--8--8--10-10-10-10-10-10--13-13-13-13-13-13-|
|--8--8--8--8--8--8--10-10-10-10-10-10--13-13-13-13-13-13-|

Outro
|-------------------------------------|      |-----------------------|
|-------------------------------------|      |-----------------------|
|-------------------------------------| x1   |-----------------------|
|-3\2-0h1-1p0-3\2-0h1-1p0--3-2--2-2-2-|      |-3\2-0h1-1p0-3\2-0h1-1-|
|-3\2-0h1-1p0-3\2-0h1-1p0--3-2--2-2-2-|      |-3\2-0h1-1p0-3\2-0h1-1-|
|-3\2-0h1-1p0-3\2-0h1-1p0--3-2--2-2-2-|      |-3\2-0h1-1p0-3\2-0h1-1-|
PM                         - -  - - -

11. THE END OF ALL THINGS TO COME
INTRO: (played fast)
|---------------------|
|---------------------|
|---------------------|
|---------------------|
|-3-2-0-2-1-0-3-2-0-1-|
|-3-2-0-2-1-0-3-2-0-1-|

CHORUS:
|-----------------------------------------------|
|-----------------------------------------------|
|-----------------------------------------------|
|-----------------------------------------------|
|-3200-3200-320200-0-0-320210320210320210-0-0-0-|
|-3200-3200-320200-0-0-320210320210320210-0-0-0-|

VERSE:
|----------------------|
|----------------------|
|----------------------|
|----------------------|
|----------------------|
|-1-1-1-1-1p0--1-1-1p0-|

VERSE FILL: (palm mute)
|---------------|
|---------------|
|---------------|
|---------------|
|-3-2-0-2-1-0-0-|
|-3-2-0-2-1-0-0-|

VERSE 2:
|--------------------|
|--------------------|
|--------------------|
|--------------------|
|--------------------|
|-1-1-1-1-1p0--1-1-0-|

INTERLUDE:
|-------------------------|
|-------------------------|
|-----7/8\5---------------|
|-----X-X-X---------------|
|-0-0-5/6\5-6-5-3-0-3h5-3-|
|-0-0-------6-5-3-0-3h5-3-|
pm. .       . . . .

INTERLUDE 2:
|-----------------------|
|-----------------------|
|-----7/8\5-------------|
|-----X-X-X-------------|
|-0-0-5/6\5-6-5-3-0-3-5-|
|-0-0-------6-5-3-0-3-5-|
pm. .       . . . .

INTERLUDE 3:
|------------------------|
|------------------------|
|------------------------|
|-0-0-1-0----------------|
|-0-0-1-0--6-5-3-0-3h5-3-|
|-0-0-1-0--6-5-3-0-3h5-3-|
pm. .      . . . .

INTERLUDE 4:
|----------------------------------------------|
|----------------------------------------------|
|----------------------------------------------|
|----------------------------------------------|
|-3-2-0-2-1-0-3-2-0-1--X-X-X-X-X-X-X-X-X-X-X-X-|
|-3-2-0-2-1-0-3-2-0-1--X-X-X-X-X-X-X-X-X-X-X-X-|


12. A KEY TO NOTHING
VERSE
|------------------------------------------------------------|
|----------8----8-----8----8-----8---8----8-----8----8-----8-|
|------------11---11----11---11--------11---11----11---11----|
|------------------------------------------------------------|
|-0-0-0-0----------------------------------------------------|
|-0-0-0-0----------------------------------------------------|
pm. . . .

CHORUS:
|-------------------------------------------------|
|-------------------------------------------------|
|-----------------5------5-----5---------5------5-|
|-----------------3------3-----3---------3------3-|
|-0-3-2-0-0-0-0-0-3--0-0-3-0-0-3-0-0-0-0-3--0-0-3-|
|-0-3-2-0-0-0-0-0-3--0-0-3-0-0-3-0-0-0-0-3--0-0-3-|
pm. . . . . . . .    . .   . .   . . . .    . .

FILL: (palm mute)
|---------|
|---------|
|---------|
|---------|
|-0-3-2-0-|
|-0-3-2-0-|

FILL 2:
|-----------|
|-----------|
|-----------|
|---------0-|
|-0-3-2-0-0-|
|-0-3-2-0-0-|
pm. . . .

INTERLUDE:
|-------------------------------|
|-------------------------------|
|-5-8-7-5-7---------------------|
|-X-X-X-X-X---------------------|
|-3-6-5-3-5-------------8-----8-|
|-----------0-0-0-1-0-0---0-0---|

INTERLUDE 2:
|----------------------------|
|----------------------------|
|-5-8-7-5-7-------6--------6-|
|-X-X-X-X-X-------X--------X-|
|-3-6-5-3-5-0-0-0-4--0-0-0-4-|
|-----------0-0-0----0-0-0---|
pm          . . .    . . .

INTERLUDE 3:
|-------------------------------------------------------------|
|-------------------------------------------------------------|
|-5-8-7-5-----------------------------------------------------|
|-X-X-X-X---------3-----3--------3---3---------3-----3--------|
|-3-6-5-3-0-0-0-0-3-0-0-3--0-000-3-0-3---0-0-0-3-0-0-3--0-000-|
|---------0-0-0-0-3-0-0-3--0-000-3-0-3---0-0-0-3-0-0-3--0-000-|
pm        . . . .   . .    . ...   .     . . .   . .    . ...

FILL 3:
|---------|
|---------|
|-5-8-7-5-|
|-X-X-X-X-|
|-3-6-5-3-|
|---------|

OUTRO:
|----------------------------|
|----------------------------|
|-----------------6--------6-|
|-----------------X--------X-|
|-0-3-2-0-0-0-0-0-4--0-0-0-4-|
|-0-3-2-0-0-0-0-0----0-0-0---|
pm. . . . . . . .    . .
Comments