Mudvayne - Silenced Chords & Tabs

 

Silenced Chords & Tabs

Mudvayne Chords & Tabs

Version: 5 Type: Tab 0 ratings
1 star 2 stars 3 stars 4 stars 5 stars
comments

Silenced Tab

   
Mudvayne-Silenced
Tabbed by-Tim Dowland (slave from cradle to grave)
tune dropped C (cgcfad)

Intro...
D--------------------------------
A--------------------------------
F--------------------------------
C--------------------------------
G----5---------------5-----------
C-0-3-60-0--0--0--0-3-60-0--0--0-

pre verse/chorus...
D--------------------------------
A--------------------------------
F--------------------------------
C-0-3760-0--0--0--0-3760-0--0--0-
G-0-3560-0--0--0--0-3560-0--0--0-
C-0-3-60-0--0--0--0-3-60-0--0--0-

verse type a...
D--------------|-------------------------------
A--------------|-------------------------------
F--------------|----------0--0-0---------0--0--
C-0000---3333--|--0000--4---4-4--3333--5----4--
G-0000---3333--|--0000-----------3333----------
C-0000---3333--|--0000-----------3333----------
PM....   ....    ....  ^ fast ^ ....  

pre verse/chorus...
D--------------------------------
A--------------------------------
F--------------------------------
C-0-3760-0--0--0--0-3760-0--0--0-
G-0-3560-0--0--0--0-3560-0--0--0-
C-0-3-60-0--0--0--0-3-60-0--0--0-

verse type a...
D--------------|-------------------------------
A--------------|-------------------------------
F--------------|----------0--0-0---------0--0--
C-0000---3333--|--0000--4---4-4--3333--5----4--
G-0000---3333--|--0000-----------3333----------
C-0000---3333--|--0000-----------3333----------
PM....   ....    ....  ^ fast ^ ....  
pre verse/chorus...
D--------------------------------
A--------------------------------
F--------------------------------
C-0-3760-0--0--0--0-3760-0--0--0-
G-0-3560-0--0--0--0-3560-0--0--0-
C-0-3-60-0--0--0--0-3-60-0--0--0-



verse type b...
D------------------------------------------------------
A---------6---------6--------------6----------6--------
F------------------------------------------------------
C------------------------------------------------------
G-6p5-6p5---6p5-6p5---6p5p0-6p5-6p5---6p5-6p5---6p5p0--
C------------------------------------------------------      
[ Tab from: http://www.guitartabs.cc/tabs/m/mudvayne/silenced_tab_ver_5.html ]
D----------------------------------------------------------------
A----------------------------------------------------------------
F----------------------------------------------------------------
C----------------------------------------------------------------
G-6p5-6p5-8p5-6p5-6p5-8p5-6p5p00--6p5-6p5-8p5-6p5-6p5-8p5-6p5p00-
C-0-0-0-0-0-0-0-0-0-0-0-0-0-0-00--0-0-0-0-0-0-0-0-0-0-0-0-0-0-00-
PM...............................................................


D----------------------------------------
A----------------------------------------
F----------------------------------------
C----------------------------------------
G-5-5-5-5-6p5p0-0-----5-5-5-5-6p5p0-0----
C-0-0-0-0-0-0-0-0-----0-0-0-0-0-0-0-0----
pm. . . . . . . .     . . . . . . . .

D--------------------------------------------------
A--------------------------------------------------
F--------------------------------------------------
C-0h1-0-1p0-0-0-0--001p0---1p0003p200---1p0003p200-
G-0h1-0-1p0-0-0-0--001p0---1p0003p200---1p0003p200-
C-0h1-0-1p0-0-0-0--001p0---1p0003p200---1p0003p200-
pm                         .... .....   ..........

D
A------------------------------------------
F------------------------------------------
C-0h1p0-1p0-010-001p0---0h1p0-1p0-010-001p0
G-0h1p0-1p0-010-001p0---0h1p0-1p0-010-001p0
C-0h1p0-1p0-010-001p0---0h1p0-1p0-010-001p0

D---------------------------------------------
A---------------------3---------------------3-
F---------------------------------------------
C-0h1p0-1p0-010-001p0---0h1p0-1p0-010-001p0---
G-0h1p0-1p0-010-001p0---0h1p0-1p0-010-001p0---
C-0h1p0-1p0-010-001p0---0h1p0-1p0-010-001p0---

verse type a...
D--------------|-------------------------------
A--------------|-------------------------------
F--------------|----------0--0-0---------0--0--
C-0000---3333--|--0000--4---4-4--3333--5----4--
G-0000---3333--|--0000-----------3333----------
C-0000---3333--|--0000-----------3333----------
PM....   ....    ....  ^ fast ^ ....  

pre verse/chorus...
D--------------------------------
A--------------------------------
F--------------------------------
C-0-3760-0--0--0--0-3760-0--0--0-
G-0-3560-0--0--0--0-3560-0--0--0-
C-0-3-60-0--0--0--0-3-60-0--0--0-
Comments