Mudvayne - Silenced Chords & Tabs

 

Silenced Chords & Tabs

Mudvayne Chords & Tabs

Version: 1 Type: Bass Tab 0 ratings
1 star 2 stars 3 stars 4 stars 5 stars
comments

Silenced Bass Tab

   
Song: Silenced
Band: Mudvayne


Tuning: F
        C
        G
        C

No bass during intro

  Main Riff                       
F[-----------------------------I---------------------------] (play the 3 with your
C[-----------------------------I---------------------------]  index, then slide your
G[----5-----------5------------I---5-----------5-----------]  index up to the 5...
C[0-3---6-0---0-3---6-0--0--0--0-3---6-0---0-3---6-0--0--0-]  its how he does it:)

  Chorus
F[----------------------------------------]
C[----------------------------------------]
G[----------------------------------------]
C[3----0----5----0----/9---0---9-/14~~~~~-]
   "sticker this, censor this, ban this..."
F[--------------------------------------]
C[--------------------------------------]
G[--------------------------------------]  in the 2nd chorus it changes to
C[3----0---5----0---9^r-9-9-8-8-7-7-6-6-] C[-9-9-10-10-11-11-12-12
  "police this, condemn this, *** this...."
F[-----------------------------------------------------]
C[-----------------------------------------------------]
G[----5----------5-------------------------------------]
C[0-3---6-0--0-3---6-0--0--0---0-0-0-0-----------------]
  "middle finger is the flag that i wave when i'm silenced"
F[-------------------]
C[-------------------]
G[-------------------]
C[3-3-3-3------------]
         listen here
Chorus
[ Tab from: http://www.guitartabs.cc/tabs/m/mudvayne/silenced_btab.html ]
F[--------------------------------------------]
C[--------------------------------------------]
G[--------------------------------------------]
C[0-0-0-0----------/15?-3-3-3-3------3/15\----]
  is it a possibility     that we're all just equal
F[-----------------------------------------------------------]
C[-----------------------------------------------------------]
G[---------------5-5-5-5-3-3-3-3-----------------------------]
C[0-0-0-0-----0h3---------------3-3-3-3-----/7-7-7-7-5-5-5-5-]
              does it piss you off    to be beat at your own game
F[-----------------------------------------------------------]

C[-----------------------------------------------------------]
G[---------------5-5-5-5-3-3-3-3-----------------------------]
C[0-0-0-0-----0h3---------------3-3-3-3-----/7-7-5-5-3-3-2-2-]
           you lead us with false morals, and shelter reality
this part changes in the 2nd & 3rd verses to:
F[---------------------------------------------------------------]
C[---------------------------------------------------------------]
G[---------------5-5-5-5-3-3-3-3---------------------------------]
C[0-0-0-0-----0h3---------------3-3-3-3------9-9-10-10-11-11-12\-]
              stifle all ascension, and sticker our freedom of speech!!

  Middle part  (1:32)

F[-----------------------------------------------------]
C[-----------------------------------------------------]
G[-----------------------------------------------------]
C[0---0---------/15?---0---0--------/15\---------------]
  SILEEEEENCED!!!                        SILEEEEEENCED!!!!

F[-----------------------------------------]     I dont know why, but he plays those
C[13-12-0-0-15-0-13-12-0-0-15-0-13-12------]     bottom 12's too, but theyre the
G[------------------------------------11---]  x4 same notes
C[-------(12)-----------(12)---------------]
               
F[------------------------]
C[------------------------]
G[------------------------]
C[1h0-0-1--0-0-0-0-1h-0-0-]

F[----------------------------------------10-10/-------------]
C[13-12-0-0-15-0-13-12-0-0-15-0-13-12-0-0--------------------]
G[-----------------------------------------------------------]
C[-------(12)-----------(12)----------------------------0---0]
   dont tell me how i need to feel,     i feel         god ***....
F[-------------------------------------------------] at the end it goes
C[-------------------------------------------------]
G[-------------------------------------------------]
C[1h0--0-0--1h0--0-0-0------1h0--0-0--1h0--0-0-0---] C[9-9-10-10-11-11-12\-0-0-0-0]
 nothing, dig the eyes out of my face....                      left in silence
Comments