Mudvayne - Severed Chords & Tabs

 

Severed Chords & Tabs

Mudvayne Chords & Tabs

Version: 3 Type: Tab 0 ratings
1 star 2 stars 3 stars 4 stars 5 stars
comments

Severed Tab

   
Song: "Severed"
Artist: Mudvayne
Album: L.D. 50
Transcribed By: thomas hassler 

Tuning: Drop D, Down 1 1/2 Steps (B,F#,B,E,G#,C#)
~ - vibration
<> - harmonics
*  - palm mute

INTRO:
|----------------------------------------------|
|-----16---------------------------------------|
|---15--15-15-15-15-15-15-15-15-14-14-14-14-14-|
|-14-------0--0--0--0--0--0--0--0--0--0--0-0--|
|----------0--0--0--0--0--0--0--0--0--0--0--0--|
|----------------------------------------------|

INTRO 2:
|-------------------------------------------------------------------|
|----------------16-------------------------------16----------------|
|-------------15----15-14-14-14-14-------------15----15-14-14-14-14-|
|-1--0--1--14-----------0--0--0--0-1-0--1--14-----------0--0--0--0-|
|-1--0--1---------------0--0--0--0-1-0-1---------------0--0--0--0-|
|-1--0--1--------------------------1--0-1--------------------------|

|------------------------------------|
|------------------------------------|
|------------------------------------|
|-1--0--1-------------------1--0--1--|
|-1--0--1--0-0-0-0-0-0-0-0--1--0--1--|
|-1--0--1--0-0-0-0-0-0-0-0--1--0--1--|
           * * * * * * * *
VERSE: (palm mute)
|-----------------|
|-----------------|
|-----------------|
|-0-0-0--00-0-0-0-|
|-0-0-0--00-0-0-0-|
|-0-0-0--00-0-0-0-|
  * * *  ** * * *

BRIDGE:
|----------------------------------------|
|----------------------------------------|
|----------------------------------------|
|-1-1--1-1--1-1--1-1--3-3--3-3--3-3--3-3-|
|-1-1--1-1--1-1--1-1--3-3--3-3--3-3--3-3-|
|-1-1--1-1--1-1--1-1--3-3--3-3--3-3--3-3-|

FILL: (palm mute)
|-----------------|
|-----------------|
|-----------------|
|-0-0-0-0-0-0-0-0-|
|-0-0-0-0-0-0-0-0-|


|-0-0-0-0-0-0-0-0-|
  * * * * * * * *

CHORUS:
|--------------------------------------------------------|
|--------------------------------------------------------|
|--------------------------------------------------------|
|--------------------------------------------------------|
|-8-8-8-8-10-8-8-8-8-8-8-10-8-8--8-7-5-8-8-8-10-8-11\\10-|
|-8-8-8-8-10-8-8-8-8-8-8-10-8-8--------8-8-8-10-8--------|

|----------------------|
|----------------------|
|----------------------|
|----------------------|
|-8-8-8-8--8\\7\\5-8-8-|
|-8-8-8-8--------8-8---|

VERSE 2:
|------------------|
|------------------|
|----14----14------|
|-15----15----14~~-|
|------------------|
|------------------|
[ Tab from: http://www.guitartabs.cc/tabs/m/mudvayne/severed_tab_ver_3.html ]
FILL 2:
|-------|
|-------|
|-------|
|-X-<3>-|
|-X-----|
|-X-----|

FILL 3:
|-----|
|-----|
|-----|
|-----|
|-----|
|-1/8-|

INTERLUDE:
|----------------------------------------------------------------------|
|---------------------------------------------------6-6----------------|
|---4-5-4-7-----------------4-5---------------4-5-7------------------5-|
|-0-------------3-2-2-2-2-0---------0-2-2-2-0-------------<3>--<3>---5-|
|-0---------2/3-3-2-2-2-2-0-----2/3-0-2-2-2-0-----------00---00---00-3-|
|-0-------------3-2-2-2-2-0---------0-2-2-2-0-----------00---00---00---|
                * * * * *           * * * *             **   **   **

FILL 4:
|---|
|---|
|---|
|-5-|
|-5-|
|-5-|

INTERLUDE 2: guitar with effects
|-------------------------------------|
|-------------------------------------|
|-6\\5-5-5-5-5-5-5-6\\5-5-5-5-5-10/12-|
|-X-X-X-X-X-X-X-X-X-X-X-X-X-X--X--X---|
|-4\\3-3-3-3-3-3-3-4\\3-3-3-3-3--8/10-|
|-------------------------------------|

INTERLUDE 2: 
|-----------------------------------------------------------------|
|-----------------------------------------------------------------|
|-----------------------------------------------------------------|
|-0-0-0-0-0--0-0-0-0-0--0-0-0-0-0-0-0-0-0-0--0-0-0-0-0--0-0-0-0-0-|
|-0-0-0-0-0--0-0-0-0-0--0-0-0-0-0-0-0-0-0-0--0-0-0-0-0--0-0-0-0-0-|
|-0-0-0-0-0--0-0-0-0-0--0-0-0-0-0-0-0-0-0-0--0-0-0-0-0--0-0-0-0-0-|

FILL 5:
|----|
|----|
|----|
|-10-|
|-10-|
|-10-|

INTERLUDE 3: guitar with delay
|--------------------------------------------|
|--------------------------------------------|
|--------------------------------------------|
|-----10---11-10--------------10--11-10------|
|---10--10------10-11p10\\8--10--10-----10/11-|
|-11----------------------10-----------------|

INTERLUDE 3: 
|---------------|
|---------------|
|---------------|
|-11-11---10-10-|
|-11-11---10-10-|
|-11-11---10-10-|

INTERLUDE 3 FILL: guitar with delay
|----------------------------|
|----------------------------|
|----------------------------|
|-----10---11-13-11----------|
|---10--10----------11p10\\8-|
|-11-------------------------|

FILL 6: palm mute with gradual release
|-------------------------------------------------|
|-------------------------------------------------|
|-------------------------------------------------|
|-10-10-10-10-10-10-10-10-10-10-10-10-10-10-10-10-|
|-10-10-10-10-10-10-10-10-10-10-10-10-10-10-10-10-|
|-10-10-10-10-10-10-10-10-10-10-10-10-10-10-10-10-|
      *    *     *      *     *     *      *     *     *     *      *     *     *      *     *     *
Comments