Mudvayne - Severd Track Chords & Tabs

 

Severd Track Chords & Tabs

Mudvayne Chords & Tabs

Version: 1 Type: Tab 0 ratings
1 star 2 stars 3 stars 4 stars 5 stars
comments

Severd Track Tab

Artist: MudVayne
Album L.D. 50
SONG: SEVERD
tabbed by: kommon (faimilyval@aol.com)




intro
                                     x4        x1
2-3-4-4-4-4-4-4-4-4-4-3-3-3-3-3-3-3-3-3--   --------------------------
-----------------------------------------   --------------------------
-----------------------------------------   --------------------------
-----------------------------------------   4-4-4---------------------
-----------------------------------------   4-4-4---------------------
-----------------------------------------   3-3-3---------------------

-2-3-3-3-4-4-4-3-2-2---------------------------------------
-----------------------------------------------------------
-----------------------------------------------------------
---------------------------4-4-4---------------------------  repeat 1x
---------------------------4-4-4---------------------------
---------------------------3-3-3---------------------------

----------------------------------------------------------------------
----------------------------------------------------------------------
----------------------------------------------------------------------
-4-4-4-4-4-4-4-4--4-4-4-----------------------------------------------
-3-3-3-3-3-3-3-3--4-4-4-----------------------------------------------
------------------3-3-3-----------------------------------------------


verse1
----------------------------------------------------------------------
----------------------------------------------------------------------
----------------------------------------------------------------------
-4-4-4--4-4-4-4-------------------------------------------------------
-4-4-4--4-4-4-4-------------------------------------------------------
-3-3-3--3-3-3-3-------------------------------------------------------
[ Tab from: http://www.guitartabs.cc/tabs/m/mudvayne/severd_track_tab.html ]
----------------------------------------------------------------------
----------------------------------------------------------------------
----------------------------------------------------------------------
-4-4-4-4-4-4-4-4------------------------------------------------------
-3-3-3-3-3-3-3-3------------------------------------------------------
----------------------------------------------------------------------

----------------------------------------------------------------------
----------------------------------------------------------------------
----------------------------------------------------------------------
-4-4-4-4-4-4-4-4------------------------------------------------------
-4-3-3-3-3-3-3-3------------------------------------------------------
-3-3-3-3-3-3-3-3------------------------------------------------------

-2-3-4-4-4-4-4-4-4-4-4-4-3-3-3-3-3-3-3-3-3----------------------------
----------------------------------------------------------------------
----------------------------------------------------------------------
----------------------------------------------------------------------
----------------------------------------------------------------------
----------------------------------------------------------------------


-----2----------2-----------------------------------------------------
----------------------------------------------------------------------
----------------------------------------------------------------------
4-4-4---4-4-4-4-------------------------------------------------------
4-4-4---4-4-4-4-------------------------------------------------------
3-3-3---3-3-3-3-------------------------------------------------------

----------------------------------------------------------------------
----------------------------------------------------------------------
-------------2--------------------------------------------------------
---------3-4---4-3-------------4-4------------------------------------
-----3-2-----------2-3---------4-4------------------------------------
-0-2-------------------2-0-----3-3------------------------------------

outro
----------------------------------------------------------------------
----------------------------------------------------------------------
----------------------------------------------------------------------
-4-4-2-4-4-5-4-4-2-4-4-5----------------------------------------------
 4-4-2-4-4-5-4-4-2-4-4-5----------------------------------------------
-3-3-2-3-3-5-3-3-2-3-3-5----------------------------------------------
Comments