Mudvayne - Pulling The String Chords & Tabs

 

Pulling The String Chords & Tabs

Mudvayne Chords & Tabs

Version: 1 Type: Bass Tab

Pulling The String Bass Tab

   
Mudvayne - Pulling The String

tuning (low to high) - G C G C F

Riff 1 x1
   ssssssssssssssss   sssssssssssss sss    sssssssstt e ss sss
|-------------------|-------------------|----------------------|
|-------------------|-------------------|----------------------|
|4-5555555555555555-|-555555555---------|-/5555555555----3h55--|
|4------------------|----------6303\101-|-------------0-0----0-|
|-------------------|-------------------|----------------------|

    sssssssss e.     tttttttt e    sssssssssssssssS   sssS sssE  ssss sss
|-----------------|-------------|-------------------|---------------------|
|-----------------|-------------|-------------------|-000--000------------|
|3----------------|3------------|4-555555555555555--|---------------------|
|4-/666555666-5\--|8-55556666/8-|4------------------|-000--000---6303\101-|
|-----------------|-------------|-------------------|---------------------|

Fill 1 x1
   sssssssstt e ss sss     sssssssss e.     tttttttt e sstts
|----------------------|-----------------|-------------------|
|----------------------|-----------------|-------------------|
|-/5555555555----3h55--|3----------------|5------------------|
|-------------0-0----0-|4-/666555666-5\--|8-55556666/8-30330-|
|----------------------|-----------------|-------------------|

Riff 2 x1
    ss ss s sssse  ssse     ss ss Ssssse  t tssss    ss ss s sssse  ssss
|----10-------7------4---|---10------7-------4----|---10-------7------4---|
|------99-\----66\----3/-|-----99\----66\-----3-3-|-----X9-\----66\----3/-|
|4-/8-------05-----02----|-/8------05-----0h2--2--|-/8-------05-----02----|
|4-----------------------|------------------------|-----------------------|
|------------------------|------------------------|-----------------------|

  s sssssss ssssssss    ss ss s sssse  ssse     ss ss s sssse.  t s t s s
|-10-----------------|---10-------7------4---|---10-------7-----16--16--16-|
|---9-9-----------36-|-----99-\----66\----3/-|-----99-\----66/----15--15---|
|----8-8-8------25---|-/8-------05-----02----|-/8-------05-----------------|
|-------9-9\3-36-----|-----------------------|-----------------------------|
|------------6-------|-----------------------|-----------------------------|

  ss ss s sssse  ssse    s sssssss ssssssss
|--10-------7------4---|-10-----------------|
|----99-\----66\----3/-|---9-9-----------36-|
|-X-------05-----02----|----8-8-8------25---|
|----------------------|-------9-9\3-36-----|
|----------------------|------------6-------|

Fill 2 x1
  W        H  Q sssS
|--------|-----------|
|--------|-----------|
|--------|-----------|
|--------|------030--|
|--------|-----------|

Rest for 2 bars in 4/4

Fill 2 x1

Riff 3A x1
   e  s s s s s se  s s s s s  s  S e se sse sss s e    e  s s e  s s e  s s s s s  s
|--------------------------------|-------------------|--------------------------------|
|--------------------------------|-------5-----------|--------------------------------|
|-/11-1111111411010-1014141010-\-|--6-66--65-X03h5-5-|-/11-111111-141110-1014141010-\-|
|--------------------------------|-------------------|--------------------------------|
|--------------------------------|-------------------|--------------------------------|




 S e se   sse sss e.   S  s s s s s s se  s s s e   s  S e ssssse ssse.
|---------------------|-------------------------------|------------------|
|---------------------|-------------------------------|-------5----------|
|--6-66-6h865-55------|--/111111111411010-10141410--\-|--6-666-65-55X----|
|---------------------|-------------------------------|------------------|
|---------------0-2/--|-------------------------------|--------------2/--|

Riff 1 x1

Fill 2 x1

Riff 4 x1
    ss ssSsssssSssse     ss ss s sssse.  s Ss Ss T
|----10-----7-----4---|---10-------7-----16-16-16-|
|------99----66----3/-|-----99-\----66/--15-15-15-|
|4-/8-----05----02----|-/8-------05---------------|
|4--------------------|---------------------------|
|---------------------|---------------------------|

  ss ss s sssse  ssse    s sssssss ssssssss
|--10-------7------4---|-10-----------------|
|----99-\----66\----3/-|---9-9-----------36-|
|-8-------05-----02----|----8-8-8------25---|
|----------------------|-------9-9\3-36-----|
|----------------------|------------6-------|

Fill 1 x1
[ Tab from: http://www.guitartabs.cc/tabs/m/mudvayne/pulling_the_string_btab.html ]
Riff 3B x1
   e.  s s s s se  s s s s s  s  S e se sse sss sss    s s s s  e.  s e  s s s e  s
|-------------------------------|-------------------|-------------------------------|
|-------------------------------|-------5-----------|-------------------------------|
|-/11--11111411010-1014141010-\-|--6-66--65-X03h555-|-/11111111/14--1110-10141410-\-|
|-------------------------------|-------------------|-------------------------------|
|-------------------------------|-------------------|-------------------------------|
                                                          (  3  )
 S e se   sse ssse.    sss s e  e  s s s s s s s  s  S e se   e e e ssse.
|--------------------|------------------------------|----------------------|
|--------------------|------------------------------|----------------------|
|--6-66-6h865-55-----|-XX11X/14-11-10101014141010-\-|--6-66-6h8-6-5-55X----|
|--------------------|------------------------------|----------------------|
|---------------02/--|------------------------------|------------------2/--|

Riff 1 x1

Fill 3 x1
   sssssssstt e ss sss     sssssssss e.     tttttttt e
|----------------------|-----------------|-------------|
|----------------------|-----------------|-------------|
|-/5555555555----3h55--|3----------------|3------------|
|-------------0-0----0-|4-/666555666-5\--|8-55556666/8-|
|----------------------|-----------------|-------------|

Fill 4 x1
 E e.  e.     e.  s  s ss  s  S se.   e.   e. s sss s  S se.  e.  e.  ssss s
|----------------------------|------------------------|-----------------------|
|----------------------------|------------------------|-----------------------|
|--8^--8^--------------8-----|-------------------5----|-----------------------|
|----------10h12--10h12-12-\-|--010^--10^--8--7h8-8-\-|--07^--7^--5--\0303h5/-|
|----------------------------|------------------------|-----------------------|
   1   1                         1    1                   .5  .5

 S se.   e.   e.  s s ss  s
|---------------------------|
|---------------------8-----|
|--012^--12^--10--8h10-10-\-|
|---------------------------|
|---------------------------|
    .5   .5



Riff 5 x3
 E e.  e.     e.  s  s ss  s  S se.   e.   e. s sss s  S se.  e.  e.  ssss s
|----------------------------|------------------------|-----------------------|
|----------------------------|------------------------|-----------------------|
|--8^--8^--------------8-----|-------------------5----|-----------------------|
|----------10h12--10h12-12-\-|--010^--10^--8--7h8-8-\-|--07^--7^--5--\0303h5/-|
|----------------------------|------------------------|-----------------------|
   1   1                         1    1                   .5  .5

 S se.   e.   e.   s  e.
|--------------------------|
|--------------------------|
|--012^--12^--10--(10)-----|
|---------------------12\--|
|--------------------------|
    .5   .5

Riff 6 x3
   ssssssssssssss    ssssssssssssssss
|-----------------|-------------------|
|-----------------|-------------------|
|7-45--1--1-------|4-45--1--1---------|
|8---65-23-535323-|4---65-23-53532322-|
|-----------------|-------------------|

Riff 1 x1

Fill 3 x1

Fill 5 x1
   sssSsssS H     sssSsse
|--------------|-----------|
|--------------|--000-006\-|
|4-555-555-----|2----------|
|4-------------|4-000-006\-|
|--------------|-----------|

Riff 7 x3
   s s tt s E s s tt s E s s tt s   E  s s tt s    s s sS s s e
|---------------------------------|-------------|-----------------|
|---------------------------------|-------------|-----------------|
|4--------------------------------|3------------|2-6-6-6--5-5-5\--|
|4-3-0-33-0---3-0-33-0---3-0-33-0-|8---3-0-33-0-|4----------------|
|---------------------------------|-------------|-----------------|

   s s tt s E s s tt s E s s tt s  E tttttttt e  s s sS s s e
|---------------------------------|-----------------------------|
|---------------------------------|-----------------------------|
|4--------------------------------|--------------5-5-5--5-5-----|
|4-3-0-33-0---3-0-33-0---3-0-33-0-|--55556666/8-------------6\--|
|---------------------------------|-----------------------------|

Fill 6 x1
   s s tt s E s s tt s E s s tt s   E  s s tt s    s s sS s s e
|---------------------------------|-------------|-----------------|
|---------------------------------|-------------|-----------------|
|4--------------------------------|3------------|2-6-6-6--5-5-5\--|
|4-3-0-33-0---3-0-33-0---3-0-33-0-|8---3-0-33-0-|4----------------|
|---------------------------------|-------------|-----------------|

   s s tt s E s s tt s E s s tt s  E tttttttt e  s s sS s s s S S s s s s s s s H
|---------------------------------|----------------------------|---------------------||
|---------------------------------|----------------------------|---------------------||
|4--------------------------------|--------------5-5-5--5-5-5--|---------------------||
|4-3-0-33-0---3-0-33-0---3-0-33-0-|--55556666/8----------------|--6-3-0-3\1-0-1------||
|---------------------------------|----------------------------|---------------------||