Mudvayne - Nothing To Gein Chords & Tabs

 

Nothing To Gein Chords & Tabs

Mudvayne Chords & Tabs

Version: 1 Type: Bass Tab 1 rating
1 star 2 stars 3 stars 4 stars 5 stars
comments

Nothing To Gein Bass Tab

Artist: Mudvayne				
Song: Nothing to gein
Album: L.D.50 (2000)
Tabbed by: ryknowisgod

Here is a decent tab for a kick ass song.

Intro (0:17):
G -------------------------------------------------------------
D ---------------------------------------------------------2-----
A --------------------------------------------7-----------------
E ---------------------------------------7-5-----5---0-3------3--
B -0-----/6------3------2------0---4/7-------------------------

G -----------------------------------------------------------
D -----------------------------------------------------------
A -------------------1--------------7---------4-5---4-4-5-7------
E -0-2---3-2--------------7-5-----5---7-7--------------------
B -----------3-2--0---4/7------------------------------------
                                                           

Chorus 1  (0:43):
G -----------------------------------------------------------------
D -----------------------------------------------------------------
A ---------------------------------------5-5-----------------4h5-5---
E -----------------------------------------------------------------
B -3-0-0-2-0-0-2-3/6-6-6-6-6-6-6-6-3-3-3-----3-5-3-2-2-2-2---------

G -------------------------------------------------------4---------
D ---------------------------------------6-------------3---3-------
A -------------------------------------5-----5-------4-------4-----
E ---------------------------------------------4-------------------
B -3-0-0-2-0-0-2-3/6-6-6-6-6-6-6-6-3-3-----------3-2-----------2-0-

G -----------------------------------------------------------------
D -----------------------------------------------------------------
A --------------------------------------5-5-5h7p5-4p5-4p5-4p5-4p5-
E -----------------------------------------------------------------
B -3-0-0-2-0-0-2-3/6-6-6-6-6-6-6-6-3-3-3---------------------------


Verse 1 (1:09): x4
G -----------------------------------------------------------------
D ------------6-----------------------------------6----------------
A -----5--5h7----------------------8--------5--5h7---------------8-
E -5h7-----------------------5---7---7-5h7--------------7--0h5h7---
B ---------------0--0--0-4/7---7--------------------4/7------------

G ----------------------
D -------6--------------
A -------------11-------
E -0h5h7---7----------7-
B ----------------0-7---


Bridge (1:47)    (slap+pop)
G -----------------------------------------------------------------
D -----------------------------------------------------------------
A --------------11--------------11--------------11-----------------
E -----------------------------------------------------------------
B 0-0-0-2-0-0-0---0-0-0-2-0-0-0---0-0-0-2-0-0-0---0-0-0-2-0--------
     
Verse 1 (2:06) x1
Bridge (2:15) x1


Chorus 2 (2:24):
G -----------------------------------------------------------------
D -----------------------------------------------------------------
A ---------------------------------------5-5---------------4h5-5---
E -----------------------------------------------------------------
B -3-0-0-2-0-0-2-3/6-6-6-6-6-6-6-6-3-3-3-----3-5-3-2-2-2-2---------
[ Tab from: http://www.guitartabs.cc/tabs/m/mudvayne/nothing_to_gein_btab.html ]
G -------------------------------------------------------4---------
D ---------------------------------------6-------------3----3-----
A -------------------------------------5----5---------4------4-----
E --------------------------------------------4-------------------
B -3-0-0-2-0-0-2-3/6-6-6-6-6-6-6-6-3-3-----------3-2-2---------2-0-

G -----------------------------------------------------------------
D -----------------------------------------------------------------
A ---------------------------------------5-5---------------4h5-5---
E -----------------------------------------------------------------
B -3-0-0-2-0-0-2-3/6-6-6-6-6-6-6-6-3-3-3-----3-5-3-2-2-2-2---------

G ------------------------------------------------------4---------
D ---------------------------------------6------------3---3-------
A -------------------------------------5---5--------4-------4-----
E -------------------------------------------4-------------------
B -3-0-0-2-0-0-2-3/6-6-6-6-6-6-6-6-3-3-----------3-2-----------2-0-


Bridge 2  (2:58): (slap)
G ---------------------------------
D ---------------------------------
A ---------------------------------
E ---------------------------------
B -0----0----0----0----0----0----0-


Verse 2 (3:08) x4 (slap+pop)
G ---------------------------------4------7--
D -------------------------------------------
A -------------------------------------------
E --------------------------0h5h7X---7------
B -0-0-0-0-0-0---0---0-0-0-0------------5----
    

Verse 3 (3:27)  (Slap+pop)
G ----------------------------4----------5---7-----------------
D -----------------------------------3-------------------------
A ---2-----2------2-----2-0h2X---------3---5-----2-----2-----2-
E ------------------------------------------------------------
B -0---0-0---0-0---0-0----------2-0------------0---0-0---0-0---
      

G -------4----------5---7-
D -------------3---------
A -----2---3-3---3---5---
E -------------------------
B -0-0--------------------

Verse 2  (3:38) x4 


Chorus 3 (3:57):
G -----------------------------------------------------------------
D -----------------------------------------------------------------
A ---------------------------------------5-5-----------------4h5-5---
E -----------------------------------------------------------------
B -3-0-0-2-0-0-2-3/6-6-6-6-6-6-6-6-3-3-3-----3-5-3-2-2-2-2---------

G ------------------------------------------------------4---------
D ----------------------------------------6-----------3---3-------
A --------------------------------------5---5-------4-------4-----
E --------------------------------------------4-------------------
B -3-0-0-2-0-0-2-3/6-6-6-6-6-6-6-6-3-3-----------3-2-----------2-0-

G -------------------------------------------------------------------
D -------------------------------------------------------------------
A --------------------------------------5-5------------------4h5-5-------
E --------------------------------------------------------------------------------
B -3-0-0-2-0-0-2-3/6-6-6-6-6-6-6-6-3-3-3-----3-5-3-2-2-2-2----------0---
    								(fade)

Extro  (4:57)

G -----------------------------------------------------------------
D ---------------------------2-------------------------------------
A ---------------7-------------------------------1----------------7-
E ----------7-5-----5---0-3------3--0-2---3-2----------------7-5-----
B -0---4/7------------------------------------3-2---0---4/7---------

G ----------------------------I
D ----------------------------I
A ----------4-5---4-4-5-7------I
E -5---7-7--------------------I
B ----------------------------I
Comments