Mudvayne - Nothing To Gain Chords & Tabs

 

Nothing To Gain Chords & Tabs

Mudvayne Chords & Tabs

Version: 5 Type: Tab 0 ratings
1 star 2 stars 3 stars 4 stars 5 stars
comments

Nothing To Gain Tab

   
Artist - Mudvayne
Title  - Nothing To Gain
Volt3r (Volt3r@mail.ru) ICQ = 228639154

h - hammeron
p - pulloff
/ - slide upwards
\ - slidedownwards
* - staccato (muting after picking)
x(X) - Death note
R - rest
pm - Palm muted
NOTE LENGHT
w - 1
h - 1/2
q - 1/4
e - 1/8
s - 1/16
?.- dotted note (+ half of its own)

6 Strings guitar
Tuning - BF#BEG#C#
Tempo  - 110

Intro

Clean
|---------------------||---------------------|
|---------------------||---------------------|
|4--------------------||4-7-7-7-7-7-7-7------|
|4-2h3-0-0-2-0-0-2-3--||4-6-6-6-6-6-6-6-0-0--|
|--2h3-0-0-2-0-0-2-3--||--5-5-5-5-5-5-5-0-0--|___
|---------------------||--6-6-6-6-6-6-6------|   |
   s s e e e e e e e      e e e e e e e s s      |
|-------------------||-------------------|         4x
|-------------------||-------------------|       |
|4------------------||4-5-5-5-5-5-5-5----|_______|
|4-3-3-3-3-3-3-5-3--||4-2-2-2-2-2-2-2-0--|
|--3-3-3-3-3-3-5-3--||--3-3-3-3-3-3-3-0--|
|-------------------||--2-2-2-2-2-2-2----|
   e e e e e e e e      e e e e e e e e
|---------------------||---------------------|
|---------------------||---------------------|
|4--------------------||4-7-7-7-7-7-7-7------|
|4-2h3-0-0-2-0-0-2-3--||4-6-6-6-6-6-6-6-0-0--|
|--2h3-0-0-2-0-0-2-3--||--5-5-5-5-5-5-5-0-0--|
|---------------------||--6-6-6-6-6-6-6------|
   s s e e e e e e e      e e e e e e e s s
|-------------------||-----|
|-------------------||-----|
|4------------------||4-5--|
|4-3-3-3-3-3-3-5-3--||4-2--|
|--3-3-3-3-3-3-5-3--||--3--|
|-------------------||-----|
   e e e e e e e e      w

Chorus

Disto.
|---------------------||---------------------|
|---------------------||---------------------|
|4--------------------||4-7-7-7-7-7-7-7------|
|4-2h3-0-0-2-0-0-2-3--||4-6-6-6-6-6-6-6------|
|--2h3-0-0-2-0-0-2-3--||--5-5-5-5-5-5-5-0-0--|___
|--2h3-0-0-2-0-0-2-3--||--6-6-6-6-6-6-6-0-0--|   |
   s s e e e e e e e      e e e e e e e s s      |
|-------------------||-------------------|        3x
|-------------------||-------------------|       |
|4------------------||4-5-5-5-5-5-5-5----|_______|
|4-3-3-3-3-3-3-5-3--||4-2-2-2-2-2-2-2-0--|
|--3-3-3-3-3-3-5-3--||--3-3-3-3-3-3-3-0--|
|--3-3-3-3-3-3-5-3--||--2-2-2-2-2-2-2-0--|
   e e e e e e e e      e e e e e e e e

Verse 

PedWah (Mute on x)

  _ Time Signature
 |
 v 
|-----------------------------------|
|-----------------------------------|
|4-X-X-X-x-X-X-X-x-X-X-X-x-X-X-X-x--|
|4----------------------------------|
|-----------------------------------|
|-----------------------------------|___________
   s s s s s s s s s s s s s s s s              |
                                                 4x
|-------------------------------------------|___|
|-------------------------------------------|
|5-X-X-X-x-X-X-X-x-X-X-X-x-X-X-X-x-X-X-X-x--|
|4------------------------------------------|
|-------------------------------------------|
|-------------------------------------------|
   s s s s s s s s s s s s s s s s s s s s
[ Tab from: http://www.guitartabs.cc/tabs/m/mudvayne/nothing_to_gain_tab_ver_5.html ]
Clean
   * * * * * * * *      * * * * * * * * *
|-----------------||-----------------------| 4x
|-----------------||-----------------------|
|4----------------||5-R-----------7-7-7-7--|
|4-9-9-9-9-9-9-9--||4---9-9-9-9-9----------|
|--8-8-8-8-8-8-8--||----8-8-8-9-8-7-7-7-7--|
|-----------------||-----------------------|______
   e e e e e e q e    e e e e e e e e e e         |
       * *     * * *              * *     *        2x
Disto
|-----------------------|4x|-------------------|__|
|-----------------------|  |-------------------|
|4-------------------4--|  |4---------------R--|
|4-------------------3--|  |4------------------|
|--2p0-0-0-2p0-0-0-0-2--|  |--2p0-0-0-2p0-0----|
|--2p0-0-0-2p0-0-0-0----|  |-------------------|
   s s e e s s e e e e        s s e e s s e q.

Chorus

Disto.
|---------------------||---------------------|
|---------------------||---------------------|
|4--------------------||4-7-7-7-7-7-7-7------|
|4-2h3-0-0-2-0-0-2-3--||4-6-6-6-6-6-6-6------|
|--2h3-0-0-2-0-0-2-3--||--5-5-5-5-5-5-5-0-0--|___
|--2h3-0-0-2-0-0-2-3--||--6-6-6-6-6-6-6-0-0--|   |
   s s e e e e e e e      e e e e e e e s s      |
|-------------------||-------------------|        3x
|-------------------||-------------------|       |
|4------------------||4-5-5-5-5-5-5-5----|_______|
|4-3-3-3-3-3-3-5-3--||4-2-2-2-2-2-2-2-0--|
|--3-3-3-3-3-3-5-3--||--3-3-3-3-3-3-3-0--|
|--3-3-3-3-3-3-5-3--||--2-2-2-2-2-2-2-0--|
   e e e e e e e e      e e e e e e e e

Verse

Disto.
|---------------------------| 6x
|---------------------------|
|3-10-9------R-10-9------R--|
|4------10-9--------10-9----|
|---------------------------|
|---------------------------|
   s  s s  s e s  s s  s e
   * * * * * * *        * * * * * pmpmpmpm
|-----------------||-----------------------|
|-----------------||-----------------------|
|4----------------||5-R--------------------|
|4-0-0-0-0-0-0-0--||4---0-0-0-0-0-3-3-3-3--|
|--0-0-0-0-0-0-0--||----0-0-0-0-0-3-3-3-3--|
|--0-0-0-0-0-0-0--||----0-0-0-0-0-3-3-3-3--|_________
   e e e e e q e      e e e e e e e e e e            |
                                                      2x
|-----------------------|4x|-----------------------|_|
|-----------------------|  |-----------------------|
|4-------------------4--|  |4----------------------|
|4-2p0-0-0-2p0-0-0-0-x--|  |4-2p0-0-0-2p0-3-3-3-3--|
|--2p0-0-0-2p0-0-0-0-2--|  |--2p0-0-0-2p0-3-3-3-3--|
|--2p0-0-0-2p0-0-0-0----|  |--2p0-0-0-2p0-3-3-3-3--|
   s s e e s s e e e e        s s e e s s e e e e

Chorus

Disto.
|---------------------||---------------------|
|---------------------||---------------------|
|4--------------------||4-7-7-7-7-7-7-7------|
|4-2h3-0-0-2-0-0-2-3--||4-6-6-6-6-6-6-6------|
|--2h3-0-0-2-0-0-2-3--||--5-5-5-5-5-5-5-0-0--|___
|--2h3-0-0-2-0-0-2-3--||--6-6-6-6-6-6-6-0-0--|   |
   s s e e e e e e e      e e e e e e e s s      |
|-------------------||-------------------|        3x
|-------------------||-------------------|       |
|4------------------||4-5-5-5-5-5-5-5----|_______|
|4-3-3-3-3-3-3-5-3--||4-2-2-2-2-2-2-2-0--|
|--3-3-3-3-3-3-5-3--||--3-3-3-3-3-3-3-0--|
|--3-3-3-3-3-3-5-3--||--2-2-2-2-2-2-2-0--|
   e e e e e e e e      e e e e e e e e

Ending

Clean
|---------------------||---------------------|till end
|---------------------||---------------------|
|4--------------------||4-7-7-7-7-7-7-7------|
|4-2h3-0-0-2-0-0-2-3--||4-6-6-6-6-6-6-6-0-0--|
|--2h3-0-0-2-0-0-2-3--||--5-5-5-5-5-5-5-0-0--|
|---------------------||--6-6-6-6-6-6-6------|
   s s e e e e e e e      e e e e e e e s s 
  
Thanx
Comments