Mudvayne - Nothing To Gain Chords & Tabs

 

Nothing To Gain Chords & Tabs

Mudvayne Chords & Tabs

Version: 4 Type: Tab 0 ratings
1 star 2 stars 3 stars 4 stars 5 stars
comments

Nothing To Gain Tab

   
Nothing To Gain-Mudvayne
L.D. 50

Drop B:
B F# B E G# C#


Verse 1: (0:00)

x3
e-----------------------------------------------------------------
b-----------------------------------------------------------------
g-----------------------------------------------------------------
d---------------------------------3-3-3-3-3-3-----3-3-3-3-3-3-3-3-
a/3-0-0-2-0-0-2-3/5-5-5-5-5-5-5-0-3-3-3-3-3-3/5-3-3-3-3-3-3-3-3-3-
d/3-0-0-2-0-0-2-3/6-6-6-6-6-6-6-0-3-3-3-3-3-3/5-3-2-2-2-2-2-2-3-3-

(0:25)
e-------------------------------------------------
b-------------------------------------------------
g-------------------------------------------------
d-14-12-12-12-12-12-12-12-12-12-12-12-12-12-12-12-
a-12-12-12-12-12-12-12-12-10-10-10-10-10-10-10-10-
d-12-12-12-12-12-12-12-12-10-10-10-10-10-10-10-10-

e-------------------------------------------------
b-------------------------------------------------
g-------------------------------------------------
d-12-12-12-12-12-12-12-12-12-12-12-12-12-12-12-12-
a--8--8--8--8--8--8--8--8--7--7--7--7--7--7--7--7-
d--8--8--8--8--8--8--8--8--7--7--7--7--7--7--7--7-

e-------------------------------------------------
b-------------------------------------------------
g-------------------------------------------------
d-14-12-12-12-12-12-12-12-12-12-12-12-12-12-12-12-
a-12-12-12-12-12-12-12-12-10-10-10-10-10-10-10-10-
d-12-12-12-12-12-12-12-12-10-10-10-10-10-10-10-10-

e-------------------------------------------------
b-------------------------------------------------
g-------------------------------------------------
d-12-12-12-12-12-12-12-12-12----------------------
a--8--8--8--8--8--8--8--8--7----------------------
d--8--8--8--8--8--8--8--8--7----------------------

Chorus: (0:43)
x3
e-----------------------------------------------------------------
b-----------------------------------------------------------------
g-----------------------------------------------------------------
d-------------------------------------------------3-3-3-3-3-3-3-3-
a-3p0-0-2-0-0-2-3/5-5-5-5-5-5-5-5-3-3-3-3-3-3/5-3-3-3-3-3-3-3-3-3-
d-3p0-0-2-0-0-2-3/6-6-6-6-6-6-6-6-3-3-3-3-3-3/5-3-2-2-2-2-2-2-3-3-

(1:09) w/ wah & pm                
x4                                *change to 5/4 time
e--------------------------------------------------------------------------
b--------------------------------------------------------------------------
g-4-4-4-4-4-4-4-4-4-4-4-4-4-4-4-4--4-4-4-4-4-4-4-4-4-4-4-4-4-4-4-4-4-4-4-4-
d--------------------------------------------------------------------------
a--------------------------------------------------------------------------
d--------------------------------------------------------------------------

(1:28)-(1:56)
x4
e-------------------------------------------------------
b-------------------------------------------------------
g-------------------------------------------7--7--7--7--
d-9--9--9--9--9--9-----9-----9--9--9--9--9--x--x--x--x--
a-8--8--8--8--8--8-----8-----8--8--8--9--8--7--7--7--7--
d-------------------------------------------------------

(1:48)-(2:15)
e-----------------------------------------------------------
b-----------------------------------------------------------
g---------------------------4----------------------------4--
d---------------------------x----------------------------x--
a---------------------------2----------------------------2--
d-2p0--0--0---2p0--0--0--0-----2p0--0--0---2p0--0--0--0-----
[ Tab from: http://www.guitartabs.cc/tabs/m/mudvayne/nothing_to_gain_tab_ver_4.html ]
e-----------------------------------------------------------
b-----------------------------------------------------------
g---------------------------4-------------------------------
d---------------------------x-------------------------------
a---------------------------2-------------------------------
d-2p0--0--0---2p0--0--0--0-----2p0--0--0---2p0--0------0-----

Chorus: (2:24)
x4
e-----------------------------------------------------------------
b-----------------------------------------------------------------
g-----------------------------------------------------------------
d-------------------------------------------------3-3-3-3-3-3-3-3-
a-3p0-0-2-0-0-2-3/5-5-5-5-5-5-5-5-3-3-3-3-3-3/5-3-3-3-3-3-3-3-3-3-
d-3p0-0-2-0-0-2-3/6-6-6-6-6-6-6-6-3-3-3-3-3-3/5-3-2-2-2-2-2-2-3-3-

(2:58)
x6
e-----------------------------
b-----------------------------
g-10p9----------10p9----------
d------10-9----------10-9-----
a-----------------------------
d-----------------------------

(3:08)
e------------------------------------------------------
b------------------------------------------------------
g------------------------------------------------------
d------------------------------------------------------
a------------------------------------------3--3--3--3--
d-0--0--0--0--0--0----0-----0--0--0--0--0--3--3--3--3--
                                           pm

(3:27)
x5
e------------------------------
b------------------------------
g---------------------------4--
d---------------------------x--
a---------------------------2--
d-2p0--0--0---2p0--0--0--0-----

(3:38)
e------------------------------------------------------
b------------------------------------------------------
g------------------------------------------------------
d------------------------------------------------------
a------------------------------------------3--3--3--3--
d-0--0--0--0--0--0----0-----0--0--0--0--0--3--3--3--3--
                                           pm
(3:57)
x3
e-----------------------------------------------------------------
b-----------------------------------------------------------------
g-----------------------------------------------------------------
d---------------------------------3-3-3-3-3-3-----3-3-3-3-3-3-3-3-
a-3-0-0-2-0-0-2-3/5-5-5-5-5-5-5-0-3-3-3-3-3-3/5-3-3-3-3-3-3-3-3-3-
d-3-0-0-2-0-0-2-3/6-6-6-6-6-6-6-0-3-3-3-3-3-3/5-3-2-2-2-2-2-2-3-3-

(4:23)
x4
e-----------------------------------------------------------------
b-----------------------------------------------------------------
g-----------------------------------------------------------------
d---------------------------------3-3-3-3-3-3-----3-3-3-3-3-3-3-3-
a-3-0-0-2-0-0-2-3/5-5-5-5-5-5-5-0-3-3-3-3-3-3/5-3-3-3-3-3-3-3-3-3-
d-3-0-0-2-0-0-2-3/6-6-6-6-6-6-6-0-3-3-3-3-3-3/5-3-2-2-2-2-2-2-3-3-

(4:57)
e-------------------------------------------------
b-------------------------------------------------
g-------------------------------------------------
d-14-12-12-12-12-12-12-12-12-12-12-12-12-12-12-12-
a-12-12-12-12-12-12-12-12-10-10-10-10-10-10-10-10-
d-12-12-12-12-12-12-12-12-10-10-10-10-10-10-10-10-

e-------------------------------------------------
b-------------------------------------------------
g-------------------------------------------------
d-12-12-12-12-12-12-12-12-12-12-12-12-12-12-12-12-
a--8--8--8--8--8--8--8--8--7--7--7--7--7--7--7--7-
d--8--8--8--8--8--8--8--8--7--7--7--7--7--7--7--7-

e-------------------------------------------------
b-------------------------------------------------
g-------------------------------------------------
d-14-12-12-12-12-12-12-12-12-12-12-12-12-12-12-12-
a-12-12-12-12-12-12-12-12-10-10-10-10-10-10-10-10-
d-12-12-12-12-12-12-12-12-10-10-10-10-10-10-10-10-

e-------------------------------------------------
b-------------------------------------------------
g-------------------------------------------------
d-12-12-12-12-12-12-12-12-12----------------------
a--8--8--8--8--8--8--8--8--7----------------------
d--8--8--8--8--8--8--8--8--7----------------------

thatís all

trevor jones
timmy91199@yahoo.ca
Comments