Mudvayne - Nothing To Gain Chords & Tabs

 

Nothing To Gain Chords & Tabs

Mudvayne Chords & Tabs

Version: 3 Type: Tab 0 ratings
1 star 2 stars 3 stars 4 stars 5 stars
comments

Nothing To Gain Tab

   
Artist- MuDvAyNE
Song- Nothing to Gein
Album- L.D.50
Tabbed By- MuddHunterLD50
Tunning- B,F#,B,E,G#,C#
Comment- Im Sure this tab is the right. PLEASE RATE THIS TAB!! 
Buy there New album Thats Comming out on Novermer 19 "The End of All Thing to Come"
Thanx and Enjoy!

First Part played in Intro - Only Play it Once
  Intro
C#|-----------------------------------------------------------------------|
G#|-----------------------------------------------------------------------|
E |-----------------------------------------------------------------------|
B |-3-0-0-2-0-0-2-3-4-4-4-4-4-4-4-4-0-6-6-6-6-6-6-6-0-3-3-3-3-3-3-5-3-2-2-|
F#|-3-0-0-2-0-0-2-3-4-4-4-4-4-4-4-4-0-6-6-6-6-6-6-6-0-3-3-3-3-3-3-5-3-2-2-|
B |-----------------------------------------------------------------------|
  Intro/Ending 
C#|-------------------------------------------------------------|
G#|-------------------------------------------------------------|
E |-------------------------------------------------------------|
B |-2-0-0-2-0-0-2-3-6-6-6-6-6-6-6-6-0-3-3-3-3-3-5-3-2-2-2-2-2-2-| x 3
F#|-2-0-0-2-0-0-2-3-6-6-6-6-6-6-6-6-0-3-3-3-3-3-5-3-2-2-2-2-2-2-|
B |-------------------------------------------------------------|

  Chorus
C#|-------------------------------------------------------------|
G#|-------------------------------------------------------------|
E |-------------------------------------------------------------|
B |-2-0-0-2-0-0-2-3-6-6-6-6-6-6-6-6-0-3-3-3-3-3-5-3-2-2-2-2-2-2-| x 3
F#|-2-0-0-2-0-0-2-3-6-6-6-6-6-6-6-6-0-3-3-3-3-3-5-3-2-2-2-2-2-2-|
B |-2-0-0-2-0-0-2-3-6-6-6-6-6-6-6-6-0-3-3-3-3-3-5-3-2-2-2-2-2-2-|

  FunkNess      With WAH Pedal
C#|-3-|
G#|-x-|
E |-x-| till next Verse
B |---| 
F#|---|
B |---|

  Verse1
C#|---------------------------------------|
G#|---------------------------------------|
E |--8-8-8-8-8-8--8---8-8-8-8--10--8-8--x-|
B |--9-9-9-9-9-9--9---9-9-9-9--11--9-9--x-| x 4
F#|---------------------------------------|
B |---------------------------------------|
[ Tab from: http://www.guitartabs.cc/tabs/m/mudvayne/nothing_to_gain_tab_ver_3.html ]
  Interlude1	
C#|---------------x---------------x---------------x----------------|
G#|---------------x---------------x---------------x----------------|
E |---------------x---------------x---------------x----------------|
B |---------------x---------------x---------------x----------------| 
F#|---------------x---------------x---------------x----------------|
B |-2-0-0-2-0-0-0-x-2-0-0-2-0-0-0-x-2-0-0-2-0-0-0-x-2-0-0-2-0-0-0--|
  
  Verse2
C#|---------------------------------------|
G#|---------------------------------------|
E |--8-8-8-8-8-8--8---8-8-8-8--10--8-8--x-|
B |--9-9-9-9-9-9--9---9-9-9-9--11--9-9--x-| x 4
F#|---------------------------------------|
B |---------------------------------------|

  Interlude2	
C#|---------------x---------------x---------------x----------------|
G#|---------------x---------------x---------------x----------------|
E |---------------x---------------x---------------x----------------|
B |---------------x---------------x---------------x----------------| 
F#|---------------x---------------x---------------x----------------|
B |-2-0-0-2-0-0-0-x-2-0-0-2-0-0-0-x-2-0-0-2-0-0-0-x-2-0-0-2-0-0-0--|

  Chorus
C#|-------------------------------------------------------------|
G#|-------------------------------------------------------------|
E |-------------------------------------------------------------|
B |-2-0-0-2-0-0-2-3-6-6-6-6-6-6-6-6-0-3-3-3-3-3-5-3-2-2-2-2-2-2-| x 4
F#|-2-0-0-2-0-0-2-3-6-6-6-6-6-6-6-6-0-3-3-3-3-3-5-3-2-2-2-2-2-2-|
B |-2-0-0-2-0-0-2-3-6-6-6-6-6-6-6-6-0-3-3-3-3-3-5-3-2-2-2-2-2-2-|


  Interlude3
C#|------------|
G#|------------|
E |-11-10------|
B |-------10-9-| x 12
F#|------------|
B |------------|

  Verse3
C#|----------------------------x-----x---|
G#|----------------------------x-----x---|
E |--------------------------------------|
B |--------------------------------------| x 10
F#|-0-0-0-0-0-0--0--0-0-0-0-0----0-0-----|
B |-0-0-0-0-0-0--0--0-0-0-0-0----0-0-----|
                               ^     ^ Those little pops are what RyKnOw does not GuRg
  Chorus
C#|-------------------------------------------------------------|
G#|-------------------------------------------------------------|
E |-------------------------------------------------------------|
B |-2-0-0-2-0-0-2-3-6-6-6-6-6-6-6-6-0-3-3-3-3-3-5-3-2-2-2-2-2-2-| x 3
F#|-2-0-0-2-0-0-2-3-6-6-6-6-6-6-6-6-0-3-3-3-3-3-5-3-2-2-2-2-2-2-|
B |-2-0-0-2-0-0-2-3-6-6-6-6-6-6-6-6-0-3-3-3-3-3-5-3-2-2-2-2-2-2-|

  Intro/Ending
C#|-------------------------------------------------------------|
G#|-------------------------------------------------------------|
E |-------------------------------------------------------------|
B |-2-0-0-2-0-0-2-3-6-6-6-6-6-6-6-6-0-3-3-3-3-3-5-3-2-2-2-2-2-2-| 
F#|-2-0-0-2-0-0-2-3-6-6-6-6-6-6-6-6-0-3-3-3-3-3-5-3-2-2-2-2-2-2-|
B |-------------------------------------------------------------|
  Play until The Song Fades out

             Ha Thats all 

          For any comment or wanna just talk Crap Go to "Correct this tab"
          And Please Rate My Tab. One of the Best MuDvAyNe Songs Ever. 
          Now Im working On Death Blooms Cause NO-ONE seems to get it right.
          But they Get Close. So what ever "Peace"!
Comments